  0
SECTION
  2
HEADER
  9
$ACADVER
  1
AC1015
  9
$ACADMAINTVER
 70
     6
  9
$DWGCODEPAGE
  3
ANSI_1252
  9
$INSBASE
 10
0.0
 20
0.0
 30
0.0
  9
$EXTMIN
 10
0.0
 20
0.0
 30
0.0
  9
$EXTMAX
 10
1083.909668
 20
311.555023
 30
2.0
  9
$LIMMIN
 10
0.0
 20
0.0
  9
$LIMMAX
 10
420.0
 20
297.0
  9
$ORTHOMODE
 70
     0
  9
$REGENMODE
 70
     1
  9
$FILLMODE
 70
     1
  9
$QTEXTMODE
 70
     0
  9
$MIRRTEXT
 70
     1
  9
$LTSCALE
 40
1.0
  9
$ATTMODE
 70
     1
  9
$TEXTSIZE
 40
2.5
  9
$TRACEWID
 40
1.0
  9
$TEXTSTYLE
  7
Standard
  9
$CLAYER
  8
0
  9
$CELTYPE
  6
ByLayer
  9
$CECOLOR
 62
   256
  9
$CELTSCALE
 40
1.0
  9
$DISPSILH
 70
     0
  9
$DIMSCALE
 40
1.0
  9
$DIMASZ
 40
2.5
  9
$DIMEXO
 40
0.625
  9
$DIMDLI
 40
3.75
  9
$DIMRND
 40
0.0
  9
$DIMDLE
 40
0.0
  9
$DIMEXE
 40
1.25
  9
$DIMTP
 40
0.0
  9
$DIMTM
 40
0.0
  9
$DIMTXT
 40
2.5
  9
$DIMCEN
 40
2.5
  9
$DIMTSZ
 40
0.0
  9
$DIMTOL
 70
     0
  9
$DIMLIM
 70
     0
  9
$DIMTIH
 70
     0
  9
$DIMTOH
 70
     0
  9
$DIMSE1
 70
     0
  9
$DIMSE2
 70
     0
  9
$DIMTAD
 70
     1
  9
$DIMZIN
 70
     8
  9
$DIMBLK
  1

  9
$DIMASO
 70
     1
  9
$DIMSHO
 70
     1
  9
$DIMPOST
  1

  9
$DIMAPOST
  1

  9
$DIMALT
 70
     0
  9
$DIMALTD
 70
     3
  9
$DIMALTF
 40
0.03937
  9
$DIMLFAC
 40
1.0
  9
$DIMTOFL
 70
     1
  9
$DIMTVP
 40
0.0
  9
$DIMTIX
 70
     0
  9
$DIMSOXD
 70
     0
  9
$DIMSAH
 70
     0
  9
$DIMBLK1
  1

  9
$DIMBLK2
  1

  9
$DIMSTYLE
  2
Standard
  9
$DIMCLRD
 70
     0
  9
$DIMCLRE
 70
     0
  9
$DIMCLRT
 70
     0
  9
$DIMTFAC
 40
1.0
  9
$DIMGAP
 40
0.625
  9
$DIMJUST
 70
     0
  9
$DIMSD1
 70
     0
  9
$DIMSD2
 70
     0
  9
$DIMTOLJ
 70
     0
  9
$DIMTZIN
 70
     8
  9
$DIMALTZ
 70
     0
  9
$DIMALTTZ
 70
     0
  9
$DIMUPT
 70
     0
  9
$DIMDEC
 70
     2
  9
$DIMTDEC
 70
     2
  9
$DIMALTU
 70
     2
  9
$DIMALTTD
 70
     3
  9
$DIMTXSTY
  7
Standard
  9
$DIMAUNIT
 70
     0
  9
$DIMADEC
 70
     0
  9
$DIMALTRND
 40
0.0
  9
$DIMAZIN
 70
     0
  9
$DIMDSEP
 70
    44
  9
$DIMATFIT
 70
     0
  9
$DIMFRAC
 70
     0
  9
$DIMLDRBLK
  1

  9
$DIMLUNIT
 70
     2
  9
$DIMLWD
 70
    -2
  9
$DIMLWE
 70
    -2
  9
$DIMTMOVE
 70
     0
  9
$LUNITS
 70
     2
  9
$LUPREC
 70
     4
  9
$SKETCHINC
 40
1.0
  9
$FILLETRAD
 40
2.5
  9
$AUNITS
 70
     0
  9
$AUPREC
 70
     0
  9
$MENU
  1
.
  9
$ELEVATION
 40
0.0
  9
$PELEVATION
 40
0.0
  9
$THICKNESS
 40
0.0
  9
$LIMCHECK
 70
     0
  9
$CHAMFERA
 40
2.5
  9
$CHAMFERB
 40
2.5
  9
$CHAMFERC
 40
0.0
  9
$CHAMFERD
 40
0.0
  9
$SKPOLY
 70
     0
  9
$TDCREATE
 40
2447892.75
  9
$TDUCREATE
 40
0.0
  9
$TDUPDATE
 40
2460350.582811516
  9
$TDUUPDATE
 40
2460350.832811516
  9
$TDINDWG
 40
0.0
  9
$TDUSRTIMER
 40
0.0
  9
$USRTIMER
 70
     1
  9
$ANGBASE
 50
0.0
  9
$ANGDIR
 70
     0
  9
$PDMODE
 70
     0
  9
$PDSIZE
 40
0.0
  9
$PLINEWID
 40
0.0
  9
$SPLFRAME
 70
     0
  9
$SPLINETYPE
 70
     6
  9
$SPLINESEGS
 70
     8
  9
$HANDSEED
  5
1F8
  9
$SURFTAB1
 70
     6
  9
$SURFTAB2
 70
     6
  9
$SURFTYPE
 70
     6
  9
$SURFU
 70
     6
  9
$SURFV
 70
     6
  9
$UCSBASE
  2

  9
$UCSNAME
  2

  9
$UCSORG
 10
0.0
 20
0.0
 30
0.0
  9
$UCSXDIR
 10
1.0
 20
0.0
 30
0.0
  9
$UCSYDIR
 10
0.0
 20
1.0
 30
0.0
  9
$UCSORTHOREF
  2

  9
$UCSORTHOVIEW
 70
     1
  9
$UCSORGTOP
 10
0.0
 20
0.0
 30
0.0
  9
$UCSORGBOTTOM
 10
0.0
 20
0.0
 30
0.0
  9
$UCSORGLEFT
 10
0.0
 20
0.0
 30
0.0
  9
$UCSORGRIGHT
 10
0.0
 20
0.0
 30
0.0
  9
$UCSORGFRONT
 10
0.0
 20
0.0
 30
0.0
  9
$UCSORGBACK
 10
0.0
 20
0.0
 30
0.0
  9
$PUCSBASE
  2

  9
$PUCSNAME
  2

  9
$PUCSORG
 10
0.0
 20
0.0
 30
0.0
  9
$PUCSXDIR
 10
1.0
 20
0.0
 30
0.0
  9
$PUCSYDIR
 10
0.0
 20
1.0
 30
0.0
  9
$PUCSORTHOREF
  2

  9
$PUCSORTHOVIEW
 70
     0
  9
$PUCSORGTOP
 10
0.0
 20
0.0
 30
0.0
  9
$PUCSORGBOTTOM
 10
0.0
 20
0.0
 30
0.0
  9
$PUCSORGLEFT
 10
0.0
 20
0.0
 30
0.0
  9
$PUCSORGRIGHT
 10
0.0
 20
0.0
 30
0.0
  9
$PUCSORGFRONT
 10
0.0
 20
0.0
 30
0.0
  9
$PUCSORGBACK
 10
0.0
 20
0.0
 30
0.0
  9
$USERI1
 70
     0
  9
$USERI2
 70
     0
  9
$USERI3
 70
     0
  9
$USERI4
 70
     0
  9
$USERI5
 70
     0
  9
$USERR1
 40
0.0
  9
$USERR2
 40
0.0
  9
$USERR3
 40
0.0
  9
$USERR4
 40
0.0
  9
$USERR5
 40
0.0
  9
$WORLDVIEW
 70
     1
  9
$SHADEDGE
 70
     3
  9
$SHADEDIF
 70
    70
  9
$TILEMODE
 70
     1
  9
$MAXACTVP
 70
    64
  9
$PINSBASE
 10
0.0
 20
0.0
 30
0.0
  9
$PLIMCHECK
 70
     0
  9
$PEXTMIN
 10
0.0
 20
0.0
 30
0.0
  9
$PEXTMAX
 10
1083.909668
 20
311.555023
 30
2.0
  9
$PLIMMIN
 10
0.0
 20
0.0
  9
$PLIMMAX
 10
420.0
 20
297.0
  9
$UNITMODE
 70
     0
  9
$VISRETAIN
 70
     0
  9
$PLINEGEN
 70
     0
  9
$PSLTSCALE
 70
     1
  9
$TREEDEPTH
 70
  3020
  9
$CMLSTYLE
  2
Standard
  9
$CMLJUST
 70
     0
  9
$CMLSCALE
 40
20.0
  9
$PROXYGRAPHICS
 70
     1
  9
$MEASUREMENT
 70
     1
  9
$CELWEIGHT
370
    -1
  9
$ENDCAPS
280
     0
  9
$JOINSTYLE
280
     0
  9
$LWDISPLAY
290
     0
  9
$INSUNITS
 70
     0
  9
$HYPERLINKBASE
  1

  9
$STYLESHEET
  1

  9
$XEDIT
290
     1
  9
$CEPSNTYPE
380
     0
  9
$PSTYLEMODE
290
     0
  9
$FINGERPRINTGUID
  2
{66269423-817E-4536-9EFF-E7F41F7BFE6C}
  9
$VERSIONGUID
  2
{FAEB1C32-E019-11D5-929B-00C0DF256EC4}
  9
$EXTNAMES
290
     1
  9
$PSVPSCALE
 40
0.0
  9
$OLESTARTUP
290
     0
  0
ENDSEC
  0
SECTION
  2
CLASSES
  0
CLASS
  1
ACDBDICTIONARYWDFLT
  2
AcDbDictionaryWithDefault
  3
ObjectDBX Classes
 90
        0
280
     0
281
     0
  0
CLASS
  1
VISUALSTYLE
  2
AcDbVisualStyle
  3
ObjectDBX Classes
 90
     4095
280
     0
281
     0
  0
CLASS
  1
MATERIAL
  2
AcDbMaterial
  3
ObjectDBX Classes
 90
     1153
280
     0
281
     0
  0
CLASS
  1
SCALE
  2
AcDbScale
  3
ObjectDBX Classes
 90
     1153
280
     0
281
     0
  0
CLASS
  1
TABLESTYLE
  2
AcDbTableStyle
  3
ObjectDBX Classes
 90
     4095
280
     0
281
     0
  0
CLASS
  1
MLEADERSTYLE
  2
AcDbMLeaderStyle
  3
ACDB_MLEADERSTYLE_CLASS
 90
     4095
280
     0
281
     0
  0
CLASS
  1
SUN
  2
AcDbSun
  3
SCENEOE
 90
     1153
280
     0
281
     0
  0
CLASS
  1
ACDBPLACEHOLDER
  2
AcDbPlaceHolder
  3
ObjectDBX Classes
 90
        0
280
     0
281
     0
  0
CLASS
  1
LAYOUT
  2
AcDbLayout
  3
ObjectDBX Classes
 90
        0
280
     0
281
     0
  0
ENDSEC
  0
SECTION
  2
TABLES
  0
TABLE
  2
VPORT
  5
8
330
0
100
AcDbSymbolTable
 70
     1
  0
VPORT
  5
29
330
8
100
AcDbSymbolTableRecord
100
AcDbViewportTableRecord
  2
*Active
 70
     0
 10
0.0
 20
0.0
 11
1.0
 21
1.0
 12
10.429907
 22
4.5
 13
0.0
 23
0.0
 14
0.5
 24
0.5
 15
0.5
 25
0.5
 16
0.0
 26
0.0
 36
1.0
 17
0.0
 27
0.0
 37
0.0
 40
9.0
 41
1.972973
 42
50.0
 43
0.0
 44
0.0
 50
0.0
 51
0.0
 71
     0
 72
   100
 73
     1
 74
     3
 75
     0
 76
     0
 77
     0
 78
     0
281
     0
 65
     1
110
0.0
120
0.0
130
0.0
111
1.0
121
0.0
131
0.0
112
0.0
122
1.0
132
0.0
 79
     0
146
0.0
  0
ENDTAB
  0
TABLE
  2
LTYPE
  5
5
330
0
100
AcDbSymbolTable
 70
     1
  0
LTYPE
  5
14
330
5
100
AcDbSymbolTableRecord
100
AcDbLinetypeTableRecord
  2
ByBlock
 70
     0
  3

 72
    65
 73
     0
 40
0.0
  0
LTYPE
  5
15
330
5
100
AcDbSymbolTableRecord
100
AcDbLinetypeTableRecord
  2
ByLayer
 70
     0
  3

 72
    65
 73
     0
 40
0.0
  0
LTYPE
  5
16
330
5
100
AcDbSymbolTableRecord
100
AcDbLinetypeTableRecord
  2
Continuous
 70
     0
  3
Solid line
 72
    65
 73
     0
 40
0.0
  0
ENDTAB
  0
TABLE
  2
LAYER
  5
2
330
0
100
AcDbSymbolTable
 70
     1
  0
LAYER
  5
10
330
2
100
AcDbSymbolTableRecord
100
AcDbLayerTableRecord
  2
0
 70
     0
 62
     7
  6
Continuous
370
    -3
390
F
  0
ENDTAB
  0
TABLE
  2
STYLE
  5
3
330
0
100
AcDbSymbolTable
 70
     1
  0
STYLE
  5
11
330
3
100
AcDbSymbolTableRecord
100
AcDbTextStyleTableRecord
  2
Standard
 70
     0
 40
0.0
 41
1.0
 50
0.0
 71
     0
 42
2.5
  3
txt
  4

  0
ENDTAB
  0
TABLE
  2
VIEW
  5
6
330
0
100
AcDbSymbolTable
 70
     0
  0
ENDTAB
  0
TABLE
  2
UCS
  5
7
330
0
100
AcDbSymbolTable
 70
     0
  0
ENDTAB
  0
TABLE
  2
APPID
  5
9
330
0
100
AcDbSymbolTable
 70
     1
  0
APPID
  5
12
330
9
100
AcDbSymbolTableRecord
100
AcDbRegAppTableRecord
  2
ACAD
 70
     0
  0
ENDTAB
  0
TABLE
  2
DIMSTYLE
  5
A
330
0
100
AcDbSymbolTable
 70
     1
100
AcDbDimStyleTable
  0
DIMSTYLE
105
27
330
A
100
AcDbSymbolTableRecord
100
AcDbDimStyleTableRecord
  2
Standard
 70
     0
178
     0
340
11
  0
ENDTAB
  0
TABLE
  2
BLOCK_RECORD
  5
1
330
0
100
AcDbSymbolTable
 70
     1
  0
BLOCK_RECORD
  5
1F
330
1
100
AcDbSymbolTableRecord
100
AcDbBlockTableRecord
  2
*Model_Space
340
22
  0
BLOCK_RECORD
  5
1B
330
1
100
AcDbSymbolTableRecord
100
AcDbBlockTableRecord
  2
*Paper_Space
340
1E
  0
BLOCK_RECORD
  5
23
330
1
100
AcDbSymbolTableRecord
100
AcDbBlockTableRecord
  2
*Paper_Space0
340
26
  0
ENDTAB
  0
ENDSEC
  0
SECTION
  2
BLOCKS
  0
BLOCK
  5
20
330
1F
100
AcDbEntity
  8
0
100
AcDbBlockBegin
  2
*Model_Space
 70
     0
 10
0.0
 20
0.0
 30
0.0
  3
*Model_Space
  1

  0
ENDBLK
  5
21
330
1F
100
AcDbEntity
  8
0
100
AcDbBlockEnd
  0
BLOCK
  5
1C
330
1B
100
AcDbEntity
 67
     1
  8
0
100
AcDbBlockBegin
  2
*Paper_Space
 70
     0
 10
0.0
 20
0.0
 30
0.0
  3
*Paper_Space
  1

  0
ENDBLK
  5
1D
330
1B
100
AcDbEntity
 67
     1
  8
0
100
AcDbBlockEnd
  0
BLOCK
  5
24
330
23
100
AcDbEntity
  8
0
100
AcDbBlockBegin
  2
*Paper_Space0
 70
     0
 10
0.0
 20
0.0
 30
0.0
  3
*Paper_Space0
  1

  0
ENDBLK
  5
25
330
23
100
AcDbEntity
  8
0
100
AcDbBlockEnd
  0
ENDSEC
  0
SECTION
  2
ENTITIES
  0
ARC
  5
6E
330
1F
100
AcDbEntity
  8
0
 62
     7
370
    35
100
AcDbCircle
 10
279.343994
 20
231.110962
 30
0.0
 40
10.0
100
AcDbArc
 50
330.000009
 51
150.000011
  0
LINE
  5
6F
330
1F
100
AcDbEntity
  8
0
 62
     7
370
    35
100
AcDbLine
 10
223.183746
 20
153.838531
 30
0.0
 11
270.683716
 21
236.110962
 31
0.0
  0
ARC
  5
70
330
1F
100
AcDbEntity
  8
0
 62
     7
370
    35
100
AcDbCircle
 10
244.834381
 20
141.338531
 30
0.0
 40
25.0
100
AcDbArc
 50
150.000011
 51
247.779036
  0
LINE
  5
71
330
1F
100
AcDbEntity
  8
0
 62
     7
370
    35
100
AcDbLine
 10
266.429901
 20
105.510696
 30
0.0
 11
235.379883
 21
118.195229
 31
0.0
  0
ARC
  5
72
330
1F
100
AcDbEntity
  8
0
 62
     7
370
    35
100
AcDbCircle
 10
256.975403
 20
82.367386
 30
0.0
 40
25.0
100
AcDbArc
 50
346.601559
 51
67.779034
  0
ARC
  5
73
330
1F
100
AcDbEntity
  8
0
 62
     7
370
    35
100
AcDbCircle
 10
291.022766
 20
74.257141
 30
0.0
 40
10.0
100
AcDbArc
 50
166.601564
 51
346.601559
  0
ARC
  5
74
330
1F
100
AcDbEntity
  8
0
 62
     7
370
    35
100
AcDbCircle
 10
256.975403
 20
82.367386
 30
0.0
 40
45.0
100
AcDbArc
 50
346.601559
 51
67.779034
  0
LINE
  5
75
330
1F
100
AcDbEntity
  8
0
 62
     7
370
    35
100
AcDbLine
 10
273.993469
 20
124.025345
 30
0.0
 11
242.943481
 21
136.709869
 31
0.0
  0
ARC
  5
76
330
1F
100
AcDbEntity
  8
0
 62
     7
370
    35
100
AcDbCircle
 10
244.834381
 20
141.338531
 30
0.0
 40
5.000000000000002
100
AcDbArc
 50
150.000011
 51
247.779036
  0
LINE
  5
77
330
1F
100
AcDbEntity
  8
0
 62
     7
370
    35
100
AcDbLine
 10
288.004242
 20
226.110962
 30
0.0
 11
240.504242
 21
143.838531
 31
0.0
  0
LINE
  5
78
330
1F
100
AcDbEntity
  8
0
 62
     7
370
    35
100
AcDbLine
 10
270.544952
 20
218.870575
 30
0.0
 11
273.143036
 21
217.370575
 31
0.0
  0
LINE
  5
79
330
1F
100
AcDbEntity
  8
0
 62
     7
370
    35
100
AcDbLine
 10
243.143036
 20
165.409042
 30
0.0
 11
273.143036
 21
217.370575
 31
0.0
  0
LINE
  5
7A
330
1F
100
AcDbEntity
  8
0
 62
     7
370
    35
100
AcDbLine
 10
243.143036
 20
165.409042
 30
0.0
 11
240.544952
 21
166.909042
 31
0.0
  0
LINE
  5
7B
330
1F
100
AcDbEntity
  8
0
 62
     7
370
    35
100
AcDbLine
 10
270.544952
 20
218.870575
 30
0.0
 11
240.544952
 21
166.909042
 31
0.0
  0
ARC
  5
7C
330
1F
100
AcDbEntity
  8
0
 62
     7
370
    35
100
AcDbCircle
 10
258.498108
 20
144.701218
 30
0.0
 40
10.0
100
AcDbArc
 50
150.000011
 51
330.000009
  0
LINE
  5
7D
330
1F
100
AcDbEntity
  8
0
 62
     7
370
    35
100
AcDbLine
 10
314.658325
 20
221.973633
 30
0.0
 11
267.158325
 21
139.701218
 31
0.0
  0
ARC
  5
7E
330
1F
100
AcDbEntity
  8
0
 62
     7
370
    35
100
AcDbCircle
 10
293.00769
 20
234.473633
 30
0.0
 40
25.0
100
AcDbArc
 50
330.000009
 51
67.779034
  0
LINE
  5
7F
330
1F
100
AcDbEntity
  8
0
 62
     7
370
    35
100
AcDbLine
 10
271.41217
 20
270.301483
 30
0.0
 11
302.462189
 21
257.616943
 31
0.0
  0
ARC
  5
80
330
1F
100
AcDbEntity
  8
0
 62
     7
370
    35
100
AcDbCircle
 10
280.866669
 20
293.444763
 30
0.0
 40
25.0
100
AcDbArc
 50
166.601564
 51
247.779036
  0
ARC
  5
81
330
1F
100
AcDbEntity
  8
0
 62
     7
370
    35
100
AcDbCircle
 10
246.819305
 20
301.555023
 30
0.0
 40
10.0
100
AcDbArc
 50
346.601559
 51
166.601564
  0
ARC
  5
82
330
1F
100
AcDbEntity
  8
0
 62
     7
370
    35
100
AcDbCircle
 10
280.866669
 20
293.444763
 30
0.0
 40
45.0
100
AcDbArc
 50
166.601564
 51
247.779036
  0
LINE
  5
83
330
1F
100
AcDbEntity
  8
0
 62
     7
370
    35
100
AcDbLine
 10
263.848602
 20
251.786835
 30
0.0
 11
294.89859
 21
239.102295
 31
0.0
  0
ARC
  5
84
330
1F
100
AcDbEntity
  8
0
 62
     7
370
    35
100
AcDbCircle
 10
293.00769
 20
234.473633
 30
0.0
 40
5.000000000000002
100
AcDbArc
 50
330.000009
 51
67.779034
  0
LINE
  5
85
330
1F
100
AcDbEntity
  8
0
 62
     7
370
    35
100
AcDbLine
 10
249.837845
 20
149.701218
 30
0.0
 11
297.33783
 21
231.973633
 31
0.0
  0
LINE
  5
86
330
1F
100
AcDbEntity
  8
0
 62
     7
370
    35
100
AcDbLine
 10
267.297119
 20
156.941589
 30
0.0
 11
264.699066
 21
158.441589
 31
0.0
  0
LINE
  5
87
330
1F
100
AcDbEntity
  8
0
 62
     7
370
    35
100
AcDbLine
 10
294.699036
 20
210.403122
 30
0.0
 11
264.699066
 21
158.441589
 31
0.0
  0
LINE
  5
88
330
1F
100
AcDbEntity
  8
0
 62
     7
370
    35
100
AcDbLine
 10
294.699036
 20
210.403122
 30
0.0
 11
297.297119
 21
208.903122
 31
0.0
  0
LINE
  5
89
330
1F
100
AcDbEntity
  8
0
 62
     7
370
    35
100
AcDbLine
 10
267.297119
 20
156.941589
 30
0.0
 11
297.297119
 21
208.903122
 31
0.0
  0
ARC
  5
8A
330
1F
100
AcDbEntity
  8
0
 62
     7
370
    35
100
AcDbCircle
 10
319.156006
 20
142.985321
 30
0.0
 40
10.0
100
AcDbArc
 50
150.000011
 51
330.000009
  0
LINE
  5
8B
330
1F
100
AcDbEntity
  8
0
 62
     7
370
    35
100
AcDbLine
 10
375.316223
 20
220.257751
 30
0.0
 11
327.816254
 21
137.985321
 31
0.0
  0
ARC
  5
8C
330
1F
100
AcDbEntity
  8
0
 62
     7
370
    35
100
AcDbCircle
 10
353.665588
 20
232.757751
 30
0.0
 40
25.0
100
AcDbArc
 50
330.000009
 51
67.779034
  0
LINE
  5
8D
330
1F
100
AcDbEntity
  8
0
 62
     7
370
    35
100
AcDbLine
 10
332.070099
 20
268.585571
 30
0.0
 11
363.120087
 21
255.901031
 31
0.0
  0
ARC
  5
8E
330
1F
100
AcDbEntity
  8
0
 62
     7
370
    35
100
AcDbCircle
 10
341.524567
 20
291.728882
 30
0.0
 40
25.0
100
AcDbArc
 50
166.601564
 51
247.779036
  0
ARC
  5
8F
330
1F
100
AcDbEntity
  8
0
 62
     7
370
    35
100
AcDbCircle
 10
307.477203
 20
299.839142
 30
0.0
 40
10.0
100
AcDbArc
 50
346.601559
 51
166.601564
  0
ARC
  5
90
330
1F
100
AcDbEntity
  8
0
 62
     7
370
    35
100
AcDbCircle
 10
341.524567
 20
291.728882
 30
0.0
 40
45.0
100
AcDbArc
 50
166.601564
 51
247.779036
  0
LINE
  5
91
330
1F
100
AcDbEntity
  8
0
 62
     7
370
    35
100
AcDbLine
 10
324.5065
 20
250.070923
 30
0.0
 11
355.556488
 21
237.386383
 31
0.0
  0
ARC
  5
92
330
1F
100
AcDbEntity
  8
0
 62
     7
370
    35
100
AcDbCircle
 10
353.665588
 20
232.757751
 30
0.0
 40
5.000000000000002
100
AcDbArc
 50
330.000009
 51
67.779034
  0
LINE
  5
93
330
1F
100
AcDbEntity
  8
0
 62
     7
370
    35
100
AcDbLine
 10
310.495728
 20
147.985321
 30
0.0
 11
357.995728
 21
230.257751
 31
0.0
  0
LINE
  5
94
330
1F
100
AcDbEntity
  8
0
 62
     7
370
    35
100
AcDbLine
 10
355.356934
 20
208.687225
 30
0.0
 11
357.955017
 21
207.187225
 31
0.0
  0
LINE
  5
95
330
1F
100
AcDbEntity
  8
0
 62
     7
370
    35
100
AcDbLine
 10
327.955048
 20
155.225708
 30
0.0
 11
357.955017
 21
207.187225
 31
0.0
  0
LINE
  5
96
330
1F
100
AcDbEntity
  8
0
 62
     7
370
    35
100
AcDbLine
 10
327.955048
 20
155.225708
 30
0.0
 11
325.356964
 21
156.725708
 31
0.0
  0
LINE
  5
97
330
1F
100
AcDbEntity
  8
0
 62
     7
370
    35
100
AcDbLine
 10
355.356934
 20
208.687225
 30
0.0
 11
325.356964
 21
156.725708
 31
0.0
  0
ARC
  5
98
330
1F
100
AcDbEntity
  8
0
 62
     7
370
    35
100
AcDbCircle
 10
340.001892
 20
229.395081
 30
0.0
 40
10.0
100
AcDbArc
 50
330.000009
 51
150.000011
  0
LINE
  5
99
330
1F
100
AcDbEntity
  8
0
 62
     7
370
    35
100
AcDbLine
 10
283.841644
 20
152.122635
 30
0.0
 11
331.341644
 21
234.39505
 31
0.0
  0
ARC
  5
9A
330
1F
100
AcDbEntity
  8
0
 62
     7
370
    35
100
AcDbCircle
 10
305.492279
 20
139.622635
 30
0.0
 40
25.0
100
AcDbArc
 50
150.000011
 51
247.779036
  0
LINE
  5
9B
330
1F
100
AcDbEntity
  8
0
 62
     7
370
    35
100
AcDbLine
 10
327.087799
 20
103.7948
 30
0.0
 11
296.037781
 21
116.47934
 31
0.0
  0
ARC
  5
9C
330
1F
100
AcDbEntity
  8
0
 62
     7
370
    35
100
AcDbCircle
 10
317.633301
 20
80.651497
 30
0.0
 40
25.0
100
AcDbArc
 50
346.601559
 51
67.779034
  0
ARC
  5
9D
330
1F
100
AcDbEntity
  8
0
 62
     7
370
    35
100
AcDbCircle
 10
351.680664
 20
72.541252
 30
0.0
 40
10.0
100
AcDbArc
 50
166.601564
 51
346.601559
  0
ARC
  5
9E
330
1F
100
AcDbEntity
  8
0
 62
     7
370
    35
100
AcDbCircle
 10
317.633301
 20
80.651497
 30
0.0
 40
45.0
100
AcDbArc
 50
346.601559
 51
67.779034
  0
LINE
  5
9F
330
1F
100
AcDbEntity
  8
0
 62
     7
370
    35
100
AcDbLine
 10
334.651367
 20
122.309448
 30
0.0
 11
303.601379
 21
134.993973
 31
0.0
  0
ARC
  5
A0
330
1F
100
AcDbEntity
  8
0
 62
     7
370
    35
100
AcDbCircle
 10
305.492279
 20
139.622635
 30
0.0
 40
5.000000000000002
100
AcDbArc
 50
150.000011
 51
247.779036
  0
LINE
  5
A1
330
1F
100
AcDbEntity
  8
0
 62
     7
370
    35
100
AcDbLine
 10
348.66214
 20
224.395081
 30
0.0
 11
301.16214
 21
142.122635
 31
0.0
  0
LINE
  5
A2
330
1F
100
AcDbEntity
  8
0
 62
     7
370
    35
100
AcDbLine
 10
303.800934
 20
163.693146
 30
0.0
 11
301.20285
 21
165.193146
 31
0.0
  0
LINE
  5
A3
330
1F
100
AcDbEntity
  8
0
 62
     7
370
    35
100
AcDbLine
 10
331.20285
 20
217.154694
 30
0.0
 11
301.20285
 21
165.193146
 31
0.0
  0
LINE
  5
A4
330
1F
100
AcDbEntity
  8
0
 62
     7
370
    35
100
AcDbLine
 10
331.20285
 20
217.154694
 30
0.0
 11
333.800934
 21
215.654694
 31
0.0
  0
LINE
  5
A5
330
1F
100
AcDbEntity
  8
0
 62
     7
370
    35
100
AcDbLine
 10
303.800934
 20
163.693146
 30
0.0
 11
333.800934
 21
215.654694
 31
0.0
  0
ARC
  5
A6
330
1F
100
AcDbEntity
  8
0
 62
     7
370
    35
100
AcDbCircle
 10
380.378937
 20
140.336075
 30
0.0
 40
10.0
100
AcDbArc
 50
150.000011
 51
330.000009
  0
LINE
  5
A7
330
1F
100
AcDbEntity
  8
0
 62
     7
370
    35
100
AcDbLine
 10
436.539185
 20
217.608505
 30
0.0
 11
389.039185
 21
135.33609
 31
0.0
  0
ARC
  5
A8
330
1F
100
AcDbEntity
  8
0
 62
     7
370
    35
100
AcDbCircle
 10
414.88855
 20
230.10849
 30
0.0
 40
25.0
100
AcDbArc
 50
330.000009
 51
67.779034
  0
LINE
  5
A9
330
1F
100
AcDbEntity
  8
0
 62
     7
370
    35
100
AcDbLine
 10
393.29303
 20
265.93634
 30
0.0
 11
424.343018
 21
253.251801
 31
0.0
  0
ARC
  5
AA
330
1F
100
AcDbEntity
  8
0
 62
     7
370
    35
100
AcDbCircle
 10
402.747528
 20
289.079651
 30
0.0
 40
25.0
100
AcDbArc
 50
166.601564
 51
247.779036
  0
ARC
  5
AB
330
1F
100
AcDbEntity
  8
0
 62
     7
370
    35
100
AcDbCircle
 10
368.700134
 20
297.18988
 30
0.0
 40
10.0
100
AcDbArc
 50
346.601559
 51
166.601564
  0
ARC
  5
AC
330
1F
100
AcDbEntity
  8
0
 62
     7
370
    35
100
AcDbCircle
 10
402.747528
 20
289.079651
 30
0.0
 40
45.0
100
AcDbArc
 50
166.601564
 51
247.779036
  0
LINE
  5
AD
330
1F
100
AcDbEntity
  8
0
 62
     7
370
    35
100
AcDbLine
 10
385.729431
 20
247.421692
 30
0.0
 11
416.779449
 21
234.737152
 31
0.0
  0
ARC
  5
AE
330
1F
100
AcDbEntity
  8
0
 62
     7
370
    35
100
AcDbCircle
 10
414.88855
 20
230.10849
 30
0.0
 40
5.000000000000002
100
AcDbArc
 50
330.000009
 51
67.779034
  0
LINE
  5
AF
330
1F
100
AcDbEntity
  8
0
 62
     7
370
    35
100
AcDbLine
 10
371.718689
 20
145.336075
 30
0.0
 11
419.218689
 21
227.60849
 31
0.0
  0
LINE
  5
B0
330
1F
100
AcDbEntity
  8
0
 62
     7
370
    35
100
AcDbLine
 10
416.579895
 20
206.037994
 30
0.0
 11
419.177979
 21
204.537994
 31
0.0
  0
LINE
  5
B1
330
1F
100
AcDbEntity
  8
0
 62
     7
370
    35
100
AcDbLine
 10
389.177979
 20
152.576462
 30
0.0
 11
419.177979
 21
204.537994
 31
0.0
  0
LINE
  5
B2
330
1F
100
AcDbEntity
  8
0
 62
     7
370
    35
100
AcDbLine
 10
389.177979
 20
152.576462
 30
0.0
 11
386.579895
 21
154.076462
 31
0.0
  0
LINE
  5
B3
330
1F
100
AcDbEntity
  8
0
 62
     7
370
    35
100
AcDbLine
 10
416.579895
 20
206.037994
 30
0.0
 11
386.579895
 21
154.076462
 31
0.0
  0
ARC
  5
B4
330
1F
100
AcDbEntity
  8
0
 62
     7
370
    35
100
AcDbCircle
 10
401.224823
 20
226.745819
 30
0.0
 40
10.0
100
AcDbArc
 50
330.000009
 51
150.000011
  0
LINE
  5
B5
330
1F
100
AcDbEntity
  8
0
 62
     7
370
    35
100
AcDbLine
 10
345.064575
 20
149.473389
 30
0.0
 11
392.564575
 21
231.745819
 31
0.0
  0
ARC
  5
B6
330
1F
100
AcDbEntity
  8
0
 62
     7
370
    35
100
AcDbCircle
 10
366.71521
 20
136.973389
 30
0.0
 40
25.0
100
AcDbArc
 50
150.000011
 51
247.779036
  0
LINE
  5
B7
330
1F
100
AcDbEntity
  8
0
 62
     7
370
    35
100
AcDbLine
 10
388.31073
 20
101.145561
 30
0.0
 11
357.260742
 21
113.830093
 31
0.0
  0
ARC
  5
B8
330
1F
100
AcDbEntity
  8
0
 62
     7
370
    35
100
AcDbCircle
 10
378.856262
 20
78.002258
 30
0.0
 40
25.0
100
AcDbArc
 50
346.601559
 51
67.779034
  0
ARC
  5
B9
330
1F
100
AcDbEntity
  8
0
 62
     7
370
    35
100
AcDbCircle
 10
412.903625
 20
69.892006
 30
0.0
 40
10.0
100
AcDbArc
 50
166.601564
 51
346.601559
  0
ARC
  5
BA
330
1F
100
AcDbEntity
  8
0
 62
     7
370
    35
100
AcDbCircle
 10
378.856262
 20
78.002258
 30
0.0
 40
45.0
100
AcDbArc
 50
346.601559
 51
67.779034
  0
LINE
  5
BB
330
1F
100
AcDbEntity
  8
0
 62
     7
370
    35
100
AcDbLine
 10
395.874329
 20
119.66021
 30
0.0
 11
364.824341
 21
132.344727
 31
0.0
  0
ARC
  5
BC
330
1F
100
AcDbEntity
  8
0
 62
     7
370
    35
100
AcDbCircle
 10
366.71521
 20
136.973389
 30
0.0
 40
5.000000000000002
100
AcDbArc
 50
150.000011
 51
247.779036
  0
LINE
  5
BD
330
1F
100
AcDbEntity
  8
0
 62
     7
370
    35
100
AcDbLine
 10
409.885071
 20
221.745819
 30
0.0
 11
362.385101
 21
139.473389
 31
0.0
  0
LINE
  5
BE
330
1F
100
AcDbEntity
  8
0
 62
     7
370
    35
100
AcDbLine
 10
365.023865
 20
161.043915
 30
0.0
 11
362.425812
 21
162.543915
 31
0.0
  0
LINE
  5
BF
330
1F
100
AcDbEntity
  8
0
 62
     7
370
    35
100
AcDbLine
 10
392.425781
 20
214.505432
 30
0.0
 11
362.425812
 21
162.543915
 31
0.0
  0
LINE
  5
C0
330
1F
100
AcDbEntity
  8
0
 62
     7
370
    35
100
AcDbLine
 10
392.425781
 20
214.505432
 30
0.0
 11
395.023865
 21
213.005432
 31
0.0
  0
LINE
  5
C1
330
1F
100
AcDbEntity
  8
0
 62
     7
370
    35
100
AcDbLine
 10
365.023865
 20
161.043915
 30
0.0
 11
395.023865
 21
213.005432
 31
0.0
  0
ARC
  5
C2
330
1F
100
AcDbEntity
  8
0
 62
     7
370
    35
100
AcDbCircle
 10
441.036865
 20
138.620193
 30
0.0
 40
10.0
100
AcDbArc
 50
150.000011
 51
330.000009
  0
LINE
  5
C3
330
1F
100
AcDbEntity
  8
0
 62
     7
370
    35
100
AcDbLine
 10
497.197083
 20
215.892609
 30
0.0
 11
449.697083
 21
133.620193
 31
0.0
  0
ARC
  5
C4
330
1F
100
AcDbEntity
  8
0
 62
     7
370
    35
100
AcDbCircle
 10
475.546448
 20
228.392609
 30
0.0
 40
25.0
100
AcDbArc
 50
330.000009
 51
67.779034
  0
LINE
  5
C5
330
1F
100
AcDbEntity
  8
0
 62
     7
370
    35
100
AcDbLine
 10
453.950928
 20
264.220459
 30
0.0
 11
485.000916
 21
251.535919
 31
0.0
  0
ARC
  5
C6
330
1F
100
AcDbEntity
  8
0
 62
     7
370
    35
100
AcDbCircle
 10
463.405426
 20
287.363739
 30
0.0
 40
25.0
100
AcDbArc
 50
166.601564
 51
247.779036
  0
ARC
  5
C7
330
1F
100
AcDbEntity
  8
0
 62
     7
370
    35
100
AcDbCircle
 10
429.358032
 20
295.473999
 30
0.0
 40
10.0
100
AcDbArc
 50
346.601559
 51
166.601564
  0
ARC
  5
C8
330
1F
100
AcDbEntity
  8
0
 62
     7
370
    35
100
AcDbCircle
 10
463.405426
 20
287.363739
 30
0.0
 40
45.0
100
AcDbArc
 50
166.601564
 51
247.779036
  0
LINE
  5
C9
330
1F
100
AcDbEntity
  8
0
 62
     7
370
    35
100
AcDbLine
 10
446.387329
 20
245.705811
 30
0.0
 11
477.437347
 21
233.021271
 31
0.0
  0
ARC
  5
CA
330
1F
100
AcDbEntity
  8
0
 62
     7
370
    35
100
AcDbCircle
 10
475.546448
 20
228.392609
 30
0.0
 40
5.000000000000002
100
AcDbArc
 50
330.000009
 51
67.779034
  0
LINE
  5
CB
330
1F
100
AcDbEntity
  8
0
 62
     7
370
    35
100
AcDbLine
 10
432.376587
 20
143.620178
 30
0.0
 11
479.876587
 21
225.892609
 31
0.0
  0
LINE
  5
CC
330
1F
100
AcDbEntity
  8
0
 62
     7
370
    35
100
AcDbLine
 10
477.237793
 20
204.322098
 30
0.0
 11
479.835876
 21
202.822098
 31
0.0
  0
LINE
  5
CD
330
1F
100
AcDbEntity
  8
0
 62
     7
370
    35
100
AcDbLine
 10
449.835876
 20
150.860565
 30
0.0
 11
479.835876
 21
202.822098
 31
0.0
  0
LINE
  5
CE
330
1F
100
AcDbEntity
  8
0
 62
     7
370
    35
100
AcDbLine
 10
449.835876
 20
150.860565
 30
0.0
 11
447.237793
 21
152.360565
 31
0.0
  0
LINE
  5
CF
330
1F
100
AcDbEntity
  8
0
 62
     7
370
    35
100
AcDbLine
 10
477.237793
 20
204.322098
 30
0.0
 11
447.237793
 21
152.360565
 31
0.0
  0
ARC
  5
D0
330
1F
100
AcDbEntity
  8
0
 62
     7
370
    35
100
AcDbCircle
 10
461.882751
 20
225.029938
 30
0.0
 40
10.0
100
AcDbArc
 50
330.000009
 51
150.000011
  0
LINE
  5
D1
330
1F
100
AcDbEntity
  8
0
 62
     7
370
    35
100
AcDbLine
 10
405.722473
 20
147.757507
 30
0.0
 11
453.222473
 21
230.029938
 31
0.0
  0
ARC
  5
D2
330
1F
100
AcDbEntity
  8
0
 62
     7
370
    35
100
AcDbCircle
 10
427.373138
 20
135.257507
 30
0.0
 40
25.0
100
AcDbArc
 50
150.000011
 51
247.779036
  0
LINE
  5
D3
330
1F
100
AcDbEntity
  8
0
 62
     7
370
    35
100
AcDbLine
 10
448.968628
 20
99.429672
 30
0.0
 11
417.91864
 21
112.114204
 31
0.0
  0
ARC
  5
D4
330
1F
100
AcDbEntity
  8
0
 62
     7
370
    35
100
AcDbCircle
 10
439.51416
 20
76.286362
 30
0.0
 40
25.0
100
AcDbArc
 50
346.601559
 51
67.779034
  0
ARC
  5
D5
330
1F
100
AcDbEntity
  8
0
 62
     7
370
    35
100
AcDbCircle
 10
473.561523
 20
68.176117
 30
0.0
 40
10.0
100
AcDbArc
 50
166.601564
 51
346.601559
  0
ARC
  5
D6
330
1F
100
AcDbEntity
  8
0
 62
     7
370
    35
100
AcDbCircle
 10
439.51416
 20
76.286362
 30
0.0
 40
45.0
100
AcDbArc
 50
346.601559
 51
67.779034
  0
LINE
  5
D7
330
1F
100
AcDbEntity
  8
0
 62
     7
370
    35
100
AcDbLine
 10
456.532227
 20
117.944321
 30
0.0
 11
425.482239
 21
130.628845
 31
0.0
  0
ARC
  5
D8
330
1F
100
AcDbEntity
  8
0
 62
     7
370
    35
100
AcDbCircle
 10
427.373138
 20
135.257507
 30
0.0
 40
5.000000000000002
100
AcDbArc
 50
150.000011
 51
247.779036
  0
LINE
  5
D9
330
1F
100
AcDbEntity
  8
0
 62
     7
370
    35
100
AcDbLine
 10
470.542969
 20
220.029938
 30
0.0
 11
423.042999
 21
137.757507
 31
0.0
  0
LINE
  5
DA
330
1F
100
AcDbEntity
  8
0
 62
     7
370
    35
100
AcDbLine
 10
425.681793
 20
159.328018
 30
0.0
 11
423.08371
 21
160.828018
 31
0.0
  0
LINE
  5
DB
330
1F
100
AcDbEntity
  8
0
 62
     7
370
    35
100
AcDbLine
 10
453.083679
 20
212.789551
 30
0.0
 11
423.08371
 21
160.828018
 31
0.0
  0
LINE
  5
DC
330
1F
100
AcDbEntity
  8
0
 62
     7
370
    35
100
AcDbLine
 10
453.083679
 20
212.789551
 30
0.0
 11
455.681763
 21
211.289551
 31
0.0
  0
LINE
  5
DD
330
1F
100
AcDbEntity
  8
0
 62
     7
370
    35
100
AcDbLine
 10
425.681793
 20
159.328018
 30
0.0
 11
455.681763
 21
211.289551
 31
0.0
  0
ARC
  5
DE
330
1F
100
AcDbEntity
  8
0
 62
     7
370
    35
100
AcDbCircle
 10
499.014099
 20
137.589355
 30
0.0
 40
10.0
100
AcDbArc
 50
150.000011
 51
330.000009
  0
LINE
  5
DF
330
1F
100
AcDbEntity
  8
0
 62
     7
370
    35
100
AcDbLine
 10
555.174316
 20
214.861771
 30
0.0
 11
507.674377
 21
132.589355
 31
0.0
  0
ARC
  5
E0
330
1F
100
AcDbEntity
  8
0
 62
     7
370
    35
100
AcDbCircle
 10
533.523682
 20
227.361755
 30
0.0
 40
25.0
100
AcDbArc
 50
330.000009
 51
67.779034
  0
LINE
  5
E1
330
1F
100
AcDbEntity
  8
0
 62
     7
370
    35
100
AcDbLine
 10
511.928223
 20
263.189606
 30
0.0
 11
542.97821
 21
250.505066
 31
0.0
  0
ARC
  5
E2
330
1F
100
AcDbEntity
  8
0
 62
     7
370
    35
100
AcDbCircle
 10
521.38269
 20
286.332916
 30
0.0
 40
25.0
100
AcDbArc
 50
166.601564
 51
247.779036
  0
ARC
  5
E3
330
1F
100
AcDbEntity
  8
0
 62
     7
370
    35
100
AcDbCircle
 10
487.335327
 20
294.443146
 30
0.0
 40
10.0
100
AcDbArc
 50
346.601559
 51
166.601564
  0
ARC
  5
E4
330
1F
100
AcDbEntity
  8
0
 62
     7
370
    35
100
AcDbCircle
 10
521.38269
 20
286.332916
 30
0.0
 40
45.0
100
AcDbArc
 50
166.601564
 51
247.779036
  0
LINE
  5
E5
330
1F
100
AcDbEntity
  8
0
 62
     7
370
    35
100
AcDbLine
 10
504.364624
 20
244.674957
 30
0.0
 11
535.414612
 21
231.990417
 31
0.0
  0
ARC
  5
E6
330
1F
100
AcDbEntity
  8
0
 62
     7
370
    35
100
AcDbCircle
 10
533.523682
 20
227.361755
 30
0.0
 40
5.000000000000002
100
AcDbArc
 50
330.000009
 51
67.779034
  0
LINE
  5
E7
330
1F
100
AcDbEntity
  8
0
 62
     7
370
    35
100
AcDbLine
 10
490.353882
 20
142.589355
 30
0.0
 11
537.853882
 21
224.861755
 31
0.0
  0
LINE
  5
E8
330
1F
100
AcDbEntity
  8
0
 62
     7
370
    35
100
AcDbLine
 10
535.215088
 20
203.29126
 30
0.0
 11
537.81311
 21
201.79126
 31
0.0
  0
LINE
  5
E9
330
1F
100
AcDbEntity
  8
0
 62
     7
370
    35
100
AcDbLine
 10
507.813171
 20
149.829727
 30
0.0
 11
537.81311
 21
201.79126
 31
0.0
  0
LINE
  5
EA
330
1F
100
AcDbEntity
  8
0
 62
     7
370
    35
100
AcDbLine
 10
507.813171
 20
149.829727
 30
0.0
 11
505.215088
 21
151.329727
 31
0.0
  0
LINE
  5
EB
330
1F
100
AcDbEntity
  8
0
 62
     7
370
    35
100
AcDbLine
 10
535.215088
 20
203.29126
 30
0.0
 11
505.215088
 21
151.329727
 31
0.0
  0
ARC
  5
EC
330
1F
100
AcDbEntity
  8
0
 62
     7
370
    35
100
AcDbCircle
 10
519.859985
 20
223.999084
 30
0.0
 40
10.0
100
AcDbArc
 50
330.000009
 51
150.000011
  0
LINE
  5
ED
330
1F
100
AcDbEntity
  8
0
 62
     7
370
    35
100
AcDbLine
 10
463.699768
 20
146.726654
 30
0.0
 11
511.199768
 21
228.999084
 31
0.0
  0
ARC
  5
EE
330
1F
100
AcDbEntity
  8
0
 62
     7
370
    35
100
AcDbCircle
 10
485.350403
 20
134.226669
 30
0.0
 40
25.0
100
AcDbArc
 50
150.000011
 51
247.779036
  0
LINE
  5
EF
330
1F
100
AcDbEntity
  8
0
 62
     7
370
    35
100
AcDbLine
 10
506.945923
 20
98.398827
 30
0.0
 11
475.895905
 21
111.083359
 31
0.0
  0
ARC
  5
F0
330
1F
100
AcDbEntity
  8
0
 62
     7
370
    35
100
AcDbCircle
 10
497.491425
 20
75.255524
 30
0.0
 40
25.0
100
AcDbArc
 50
346.601559
 51
67.779034
  0
ARC
  5
F1
330
1F
100
AcDbEntity
  8
0
 62
     7
370
    35
100
AcDbCircle
 10
531.538818
 20
67.145279
 30
0.0
 40
10.0
100
AcDbArc
 50
166.601564
 51
346.601559
  0
ARC
  5
F2
330
1F
100
AcDbEntity
  8
0
 62
     7
370
    35
100
AcDbCircle
 10
497.491425
 20
75.255524
 30
0.0
 40
45.0
100
AcDbArc
 50
346.601559
 51
67.779034
  0
LINE
  5
F3
330
1F
100
AcDbEntity
  8
0
 62
     7
370
    35
100
AcDbLine
 10
514.509521
 20
116.913475
 30
0.0
 11
483.459503
 21
129.598007
 31
0.0
  0
ARC
  5
F4
330
1F
100
AcDbEntity
  8
0
 62
     7
370
    35
100
AcDbCircle
 10
485.350403
 20
134.226669
 30
0.0
 40
5.000000000000002
100
AcDbArc
 50
150.000011
 51
247.779036
  0
LINE
  5
F5
330
1F
100
AcDbEntity
  8
0
 62
     7
370
    35
100
AcDbLine
 10
528.520264
 20
218.999084
 30
0.0
 11
481.020264
 21
136.726669
 31
0.0
  0
LINE
  5
F6
330
1F
100
AcDbEntity
  8
0
 62
     7
370
    35
100
AcDbLine
 10
483.659058
 20
158.29718
 30
0.0
 11
481.060974
 21
159.79718
 31
0.0
  0
LINE
  5
F7
330
1F
100
AcDbEntity
  8
0
 62
     7
370
    35
100
AcDbLine
 10
511.060974
 20
211.758698
 30
0.0
 11
481.060974
 21
159.79718
 31
0.0
  0
LINE
  5
F8
330
1F
100
AcDbEntity
  8
0
 62
     7
370
    35
100
AcDbLine
 10
511.060974
 20
211.758698
 30
0.0
 11
513.659058
 21
210.258698
 31
0.0
  0
LINE
  5
F9
330
1F
100
AcDbEntity
  8
0
 62
     7
370
    35
100
AcDbLine
 10
483.659058
 20
158.29718
 30
0.0
 11
513.659058
 21
210.258698
 31
0.0
  0
ARC
  5
FA
330
1F
100
AcDbEntity
  8
0
 62
     7
370
    35
100
AcDbCircle
 10
561.499146
 20
138.258804
 30
0.0
 40
10.0
100
AcDbArc
 50
150.000011
 51
330.000009
  0
LINE
  5
FB
330
1F
100
AcDbEntity
  8
0
 62
     7
370
    35
100
AcDbLine
 10
617.659424
 20
215.531235
 30
0.0
 11
570.159424
 21
133.25882
 31
0.0
  0
ARC
  5
FC
330
1F
100
AcDbEntity
  8
0
 62
     7
370
    35
100
AcDbCircle
 10
596.008789
 20
228.031219
 30
0.0
 40
25.0
100
AcDbArc
 50
330.000009
 51
67.779034
  0
LINE
  5
FD
330
1F
100
AcDbEntity
  8
0
 62
     7
370
    35
100
AcDbLine
 10
574.413208
 20
263.85907
 30
0.0
 11
605.463257
 21
251.17453
 31
0.0
  0
ARC
  5
FE
330
1F
100
AcDbEntity
  8
0
 62
     7
370
    35
100
AcDbCircle
 10
583.867737
 20
287.00238
 30
0.0
 40
25.0
100
AcDbArc
 50
166.601564
 51
247.779036
  0
ARC
  5
FF
330
1F
100
AcDbEntity
  8
0
 62
     7
370
    35
100
AcDbCircle
 10
549.820374
 20
295.11261
 30
0.0
 40
10.0
100
AcDbArc
 50
346.601559
 51
166.601564
  0
ARC
  5
100
330
1F
100
AcDbEntity
  8
0
 62
     7
370
    35
100
AcDbCircle
 10
583.867737
 20
287.00238
 30
0.0
 40
45.0
100
AcDbArc
 50
166.601564
 51
247.779036
  0
LINE
  5
101
330
1F
100
AcDbEntity
  8
0
 62
     7
370
    35
100
AcDbLine
 10
566.84967
 20
245.344421
 30
0.0
 11
597.899658
 21
232.659882
 31
0.0
  0
ARC
  5
102
330
1F
100
AcDbEntity
  8
0
 62
     7
370
    35
100
AcDbCircle
 10
596.008789
 20
228.031219
 30
0.0
 40
5.000000000000002
100
AcDbArc
 50
330.000009
 51
67.779034
  0
LINE
  5
103
330
1F
100
AcDbEntity
  8
0
 62
     7
370
    35
100
AcDbLine
 10
552.838867
 20
143.258804
 30
0.0
 11
600.338867
 21
225.531219
 31
0.0
  0
LINE
  5
104
330
1F
100
AcDbEntity
  8
0
 62
     7
370
    35
100
AcDbLine
 10
597.700073
 20
203.960724
 30
0.0
 11
600.298218
 21
202.460724
 31
0.0
  0
LINE
  5
105
330
1F
100
AcDbEntity
  8
0
 62
     7
370
    35
100
AcDbLine
 10
570.298218
 20
150.499191
 30
0.0
 11
600.298218
 21
202.460724
 31
0.0
  0
LINE
  5
106
330
1F
100
AcDbEntity
  8
0
 62
     7
370
    35
100
AcDbLine
 10
570.298218
 20
150.499191
 30
0.0
 11
567.700073
 21
151.999191
 31
0.0
  0
LINE
  5
107
330
1F
100
AcDbEntity
  8
0
 62
     7
370
    35
100
AcDbLine
 10
597.700073
 20
203.960724
 30
0.0
 11
567.700073
 21
151.999191
 31
0.0
  0
ARC
  5
108
330
1F
100
AcDbEntity
  8
0
 62
     7
370
    35
100
AcDbCircle
 10
582.345093
 20
224.668549
 30
0.0
 40
10.0
100
AcDbArc
 50
330.000009
 51
150.000011
  0
LINE
  5
109
330
1F
100
AcDbEntity
  8
0
 62
     7
370
    35
100
AcDbLine
 10
526.184814
 20
147.396118
 30
0.0
 11
573.684814
 21
229.668549
 31
0.0
  0
ARC
  5
10A
330
1F
100
AcDbEntity
  8
0
 62
     7
370
    35
100
AcDbCircle
 10
547.835449
 20
134.896118
 30
0.0
 40
25.0
100
AcDbArc
 50
150.000011
 51
247.779036
  0
LINE
  5
10B
330
1F
100
AcDbEntity
  8
0
 62
     7
370
    35
100
AcDbLine
 10
569.430969
 20
99.068283
 30
0.0
 11
538.380981
 21
111.752823
 31
0.0
  0
ARC
  5
10C
330
1F
100
AcDbEntity
  8
0
 62
     7
370
    35
100
AcDbCircle
 10
559.97644
 20
75.92498
 30
0.0
 40
25.0
100
AcDbArc
 50
346.601559
 51
67.779034
  0
ARC
  5
10D
330
1F
100
AcDbEntity
  8
0
 62
     7
370
    35
100
AcDbCircle
 10
594.023804
 20
67.814735
 30
0.0
 40
10.0
100
AcDbArc
 50
166.601564
 51
346.601559
  0
ARC
  5
10E
330
1F
100
AcDbEntity
  8
0
 62
     7
370
    35
100
AcDbCircle
 10
559.97644
 20
75.92498
 30
0.0
 40
45.0
100
AcDbArc
 50
346.601559
 51
67.779034
  0
LINE
  5
10F
330
1F
100
AcDbEntity
  8
0
 62
     7
370
    35
100
AcDbLine
 10
576.994507
 20
117.582932
 30
0.0
 11
545.94458
 21
130.267456
 31
0.0
  0
ARC
  5
110
330
1F
100
AcDbEntity
  8
0
 62
     7
370
    35
100
AcDbCircle
 10
547.835449
 20
134.896118
 30
0.0
 40
5.000000000000002
100
AcDbArc
 50
150.000011
 51
247.779036
  0
LINE
  5
111
330
1F
100
AcDbEntity
  8
0
 62
     7
370
    35
100
AcDbLine
 10
591.00531
 20
219.668549
 30
0.0
 11
543.50531
 21
137.396118
 31
0.0
  0
LINE
  5
112
330
1F
100
AcDbEntity
  8
0
 62
     7
370
    35
100
AcDbLine
 10
546.144104
 20
158.966644
 30
0.0
 11
543.546021
 21
160.466644
 31
0.0
  0
LINE
  5
113
330
1F
100
AcDbEntity
  8
0
 62
     7
370
    35
100
AcDbLine
 10
573.546021
 20
212.428162
 30
0.0
 11
543.546021
 21
160.466644
 31
0.0
  0
LINE
  5
114
330
1F
100
AcDbEntity
  8
0
 62
     7
370
    35
100
AcDbLine
 10
573.546021
 20
212.428162
 30
0.0
 11
576.144043
 21
210.928162
 31
0.0
  0
LINE
  5
115
330
1F
100
AcDbEntity
  8
0
 62
     7
370
    35
100
AcDbLine
 10
546.144104
 20
158.966644
 30
0.0
 11
576.144043
 21
210.928162
 31
0.0
  0
ARC
  5
116
330
1F
100
AcDbEntity
  8
0
 62
     7
370
    35
100
AcDbCircle
 10
683.380005
 20
133.893677
 30
0.0
 40
10.0
100
AcDbArc
 50
150.000011
 51
330.000009
  0
LINE
  5
117
330
1F
100
AcDbEntity
  8
0
 62
     7
370
    35
100
AcDbLine
 10
739.540283
 20
211.166107
 30
0.0
 11
692.040283
 21
128.893677
 31
0.0
  0
ARC
  5
118
330
1F
100
AcDbEntity
  8
0
 62
     7
370
    35
100
AcDbCircle
 10
717.889648
 20
223.666077
 30
0.0
 40
25.0
100
AcDbArc
 50
330.000009
 51
67.779034
  0
LINE
  5
119
330
1F
100
AcDbEntity
  8
0
 62
     7
370
    35
100
AcDbLine
 10
696.294067
 20
259.493927
 30
0.0
 11
727.344116
 21
246.809387
 31
0.0
  0
ARC
  5
11A
330
1F
100
AcDbEntity
  8
0
 62
     7
370
    35
100
AcDbCircle
 10
705.748596
 20
282.637238
 30
0.0
 40
25.0
100
AcDbArc
 50
166.601564
 51
247.779036
  0
ARC
  5
11B
330
1F
100
AcDbEntity
  8
0
 62
     7
370
    35
100
AcDbCircle
 10
671.701172
 20
290.747467
 30
0.0
 40
10.0
100
AcDbArc
 50
346.601559
 51
166.601564
  0
ARC
  5
11C
330
1F
100
AcDbEntity
  8
0
 62
     7
370
    35
100
AcDbCircle
 10
705.748596
 20
282.637238
 30
0.0
 40
45.0
100
AcDbArc
 50
166.601564
 51
247.779036
  0
LINE
  5
11D
330
1F
100
AcDbEntity
  8
0
 62
     7
370
    35
100
AcDbLine
 10
688.730469
 20
240.979279
 30
0.0
 11
719.780518
 21
228.294739
 31
0.0
  0
ARC
  5
11E
330
1F
100
AcDbEntity
  8
0
 62
     7
370
    35
100
AcDbCircle
 10
717.889648
 20
223.666077
 30
0.0
 40
5.000000000000002
100
AcDbArc
 50
330.000009
 51
67.779034
  0
LINE
  5
11F
330
1F
100
AcDbEntity
  8
0
 62
     7
370
    35
100
AcDbLine
 10
674.719727
 20
138.893677
 30
0.0
 11
722.219727
 21
221.166077
 31
0.0
  0
LINE
  5
120
330
1F
100
AcDbEntity
  8
0
 62
     7
370
    35
100
AcDbLine
 10
719.580933
 20
199.595581
 30
0.0
 11
722.179077
 21
198.095581
 31
0.0
  0
LINE
  5
121
330
1F
100
AcDbEntity
  8
0
 62
     7
370
    35
100
AcDbLine
 10
692.179077
 20
146.134048
 30
0.0
 11
722.179077
 21
198.095581
 31
0.0
  0
LINE
  5
122
330
1F
100
AcDbEntity
  8
0
 62
     7
370
    35
100
AcDbLine
 10
692.179077
 20
146.134048
 30
0.0
 11
689.580933
 21
147.634048
 31
0.0
  0
LINE
  5
123
330
1F
100
AcDbEntity
  8
0
 62
     7
370
    35
100
AcDbLine
 10
719.580933
 20
199.595581
 30
0.0
 11
689.580933
 21
147.634048
 31
0.0
  0
ARC
  5
124
330
1F
100
AcDbEntity
  8
0
 62
     7
370
    35
100
AcDbCircle
 10
704.225891
 20
220.303406
 30
0.0
 40
10.0
100
AcDbArc
 50
330.000009
 51
150.000011
  0
LINE
  5
125
330
1F
100
AcDbEntity
  8
0
 62
     7
370
    35
100
AcDbLine
 10
648.065674
 20
143.030991
 30
0.0
 11
695.565674
 21
225.303406
 31
0.0
  0
ARC
  5
126
330
1F
100
AcDbEntity
  8
0
 62
     7
370
    35
100
AcDbCircle
 10
669.716309
 20
130.530991
 30
0.0
 40
25.0
100
AcDbArc
 50
150.000011
 51
247.779036
  0
LINE
  5
127
330
1F
100
AcDbEntity
  8
0
 62
     7
370
    35
100
AcDbLine
 10
691.311768
 20
94.703156
 30
0.0
 11
660.261841
 21
107.38768
 31
0.0
  0
ARC
  5
128
330
1F
100
AcDbEntity
  8
0
 62
     7
370
    35
100
AcDbCircle
 10
681.8573
 20
71.559845
 30
0.0
 40
25.0
100
AcDbArc
 50
346.601559
 51
67.779034
  0
ARC
  5
129
330
1F
100
AcDbEntity
  8
0
 62
     7
370
    35
100
AcDbCircle
 10
715.904663
 20
63.4496
 30
0.0
 40
10.0
100
AcDbArc
 50
166.601564
 51
346.601559
  0
ARC
  5
12A
330
1F
100
AcDbEntity
  8
0
 62
     7
370
    35
100
AcDbCircle
 10
681.8573
 20
71.559845
 30
0.0
 40
45.0
100
AcDbArc
 50
346.601559
 51
67.779034
  0
LINE
  5
12B
330
1F
100
AcDbEntity
  8
0
 62
     7
370
    35
100
AcDbLine
 10
698.875366
 20
113.217804
 30
0.0
 11
667.825378
 21
125.902328
 31
0.0
  0
ARC
  5
12C
330
1F
100
AcDbEntity
  8
0
 62
     7
370
    35
100
AcDbCircle
 10
669.716309
 20
130.530991
 30
0.0
 40
5.000000000000002
100
AcDbArc
 50
150.000011
 51
247.779036
  0
LINE
  5
12D
330
1F
100
AcDbEntity
  8
0
 62
     7
370
    35
100
AcDbLine
 10
712.886108
 20
215.303406
 30
0.0
 11
665.386169
 21
133.030991
 31
0.0
  0
LINE
  5
12E
330
1F
100
AcDbEntity
  8
0
 62
     7
370
    35
100
AcDbLine
 10
668.024902
 20
154.601501
 30
0.0
 11
665.42688
 21
156.101501
 31
0.0
  0
LINE
  5
12F
330
1F
100
AcDbEntity
  8
0
 62
     7
370
    35
100
AcDbLine
 10
695.42688
 20
208.063034
 30
0.0
 11
665.42688
 21
156.101501
 31
0.0
  0
LINE
  5
130
330
1F
100
AcDbEntity
  8
0
 62
     7
370
    35
100
AcDbLine
 10
695.42688
 20
208.063034
 30
0.0
 11
698.024902
 21
206.563034
 31
0.0
  0
LINE
  5
131
330
1F
100
AcDbEntity
  8
0
 62
     7
370
    35
100
AcDbLine
 10
668.024902
 20
154.601501
 30
0.0
 11
698.024902
 21
206.563034
 31
0.0
  0
ARC
  5
132
330
1F
100
AcDbEntity
  8
0
 62
     7
370
    35
100
AcDbCircle
 10
622.722107
 20
135.609558
 30
0.0
 40
10.0
100
AcDbArc
 50
150.000011
 51
330.000009
  0
LINE
  5
133
330
1F
100
AcDbEntity
  8
0
 62
     7
370
    35
100
AcDbLine
 10
678.882324
 20
212.881989
 30
0.0
 11
631.382324
 21
130.609573
 31
0.0
  0
ARC
  5
134
330
1F
100
AcDbEntity
  8
0
 62
     7
370
    35
100
AcDbCircle
 10
657.231689
 20
225.381989
 30
0.0
 40
25.0
100
AcDbArc
 50
330.000009
 51
67.779034
  0
LINE
  5
135
330
1F
100
AcDbEntity
  8
0
 62
     7
370
    35
100
AcDbLine
 10
635.63623
 20
261.209839
 30
0.0
 11
666.686157
 21
248.525269
 31
0.0
  0
ARC
  5
136
330
1F
100
AcDbEntity
  8
0
 62
     7
370
    35
100
AcDbCircle
 10
645.090698
 20
284.353119
 30
0.0
 40
25.0
100
AcDbArc
 50
166.601564
 51
247.779036
  0
ARC
  5
137
330
1F
100
AcDbEntity
  8
0
 62
     7
370
    35
100
AcDbCircle
 10
611.043335
 20
292.463379
 30
0.0
 40
10.0
100
AcDbArc
 50
346.601559
 51
166.601564
  0
ARC
  5
138
330
1F
100
AcDbEntity
  8
0
 62
     7
370
    35
100
AcDbCircle
 10
645.090698
 20
284.353119
 30
0.0
 40
45.0
100
AcDbArc
 50
166.601564
 51
247.779036
  0
LINE
  5
139
330
1F
100
AcDbEntity
  8
0
 62
     7
370
    35
100
AcDbLine
 10
628.072632
 20
242.69519
 30
0.0
 11
659.122559
 21
230.010651
 31
0.0
  0
ARC
  5
13A
330
1F
100
AcDbEntity
  8
0
 62
     7
370
    35
100
AcDbCircle
 10
657.231689
 20
225.381989
 30
0.0
 40
5.000000000000002
100
AcDbArc
 50
330.000009
 51
67.779034
  0
LINE
  5
13B
330
1F
100
AcDbEntity
  8
0
 62
     7
370
    35
100
AcDbLine
 10
614.06189
 20
140.609558
 30
0.0
 11
661.561829
 21
222.881989
 31
0.0
  0
LINE
  5
13C
330
1F
100
AcDbEntity
  8
0
 62
     7
370
    35
100
AcDbLine
 10
658.923096
 20
201.311478
 30
0.0
 11
661.521118
 21
199.811478
 31
0.0
  0
LINE
  5
13D
330
1F
100
AcDbEntity
  8
0
 62
     7
370
    35
100
AcDbLine
 10
631.521118
 20
147.849945
 30
0.0
 11
661.521118
 21
199.811478
 31
0.0
  0
LINE
  5
13E
330
1F
100
AcDbEntity
  8
0
 62
     7
370
    35
100
AcDbLine
 10
631.521118
 20
147.849945
 30
0.0
 11
628.923096
 21
149.349945
 31
0.0
  0
LINE
  5
13F
330
1F
100
AcDbEntity
  8
0
 62
     7
370
    35
100
AcDbLine
 10
658.923096
 20
201.311478
 30
0.0
 11
628.923096
 21
149.349945
 31
0.0
  0
ARC
  5
140
330
1F
100
AcDbEntity
  8
0
 62
     7
370
    35
100
AcDbCircle
 10
643.567993
 20
222.019318
 30
0.0
 40
10.0
100
AcDbArc
 50
330.000009
 51
150.000011
  0
LINE
  5
141
330
1F
100
AcDbEntity
  8
0
 62
     7
370
    35
100
AcDbLine
 10
587.407715
 20
144.746872
 30
0.0
 11
634.907715
 21
227.019318
 31
0.0
  0
ARC
  5
142
330
1F
100
AcDbEntity
  8
0
 62
     7
370
    35
100
AcDbCircle
 10
609.05835
 20
132.246887
 30
0.0
 40
25.0
100
AcDbArc
 50
150.000011
 51
247.779036
  0
LINE
  5
143
330
1F
100
AcDbEntity
  8
0
 62
     7
370
    35
100
AcDbLine
 10
630.653931
 20
96.419044
 30
0.0
 11
599.603882
 21
109.103577
 31
0.0
  0
ARC
  5
144
330
1F
100
AcDbEntity
  8
0
 62
     7
370
    35
100
AcDbCircle
 10
621.199402
 20
73.275742
 30
0.0
 40
25.0
100
AcDbArc
 50
346.601559
 51
67.779034
  0
ARC
  5
145
330
1F
100
AcDbEntity
  8
0
 62
     7
370
    35
100
AcDbCircle
 10
655.246826
 20
65.165489
 30
0.0
 40
10.0
100
AcDbArc
 50
166.601564
 51
346.601559
  0
ARC
  5
146
330
1F
100
AcDbEntity
  8
0
 62
     7
370
    35
100
AcDbCircle
 10
621.199402
 20
73.275742
 30
0.0
 40
45.0
100
AcDbArc
 50
346.601559
 51
67.779034
  0
LINE
  5
147
330
1F
100
AcDbEntity
  8
0
 62
     7
370
    35
100
AcDbLine
 10
638.217529
 20
114.933693
 30
0.0
 11
607.16748
 21
127.618217
 31
0.0
  0
ARC
  5
148
330
1F
100
AcDbEntity
  8
0
 62
     7
370
    35
100
AcDbCircle
 10
609.05835
 20
132.246887
 30
0.0
 40
5.000000000000002
100
AcDbArc
 50
150.000011
 51
247.779036
  0
LINE
  5
149
330
1F
100
AcDbEntity
  8
0
 62
     7
370
    35
100
AcDbLine
 10
652.228271
 20
217.019318
 30
0.0
 11
604.728271
 21
134.746887
 31
0.0
  0
LINE
  5
14A
330
1F
100
AcDbEntity
  8
0
 62
     7
370
    35
100
AcDbLine
 10
607.367065
 20
156.317398
 30
0.0
 11
604.768921
 21
157.817398
 31
0.0
  0
LINE
  5
14B
330
1F
100
AcDbEntity
  8
0
 62
     7
370
    35
100
AcDbLine
 10
634.768921
 20
209.778931
 30
0.0
 11
604.768921
 21
157.817398
 31
0.0
  0
LINE
  5
14C
330
1F
100
AcDbEntity
  8
0
 62
     7
370
    35
100
AcDbLine
 10
634.768921
 20
209.778931
 30
0.0
 11
637.367065
 21
208.278931
 31
0.0
  0
LINE
  5
14D
330
1F
100
AcDbEntity
  8
0
 62
     7
370
    35
100
AcDbLine
 10
607.367065
 20
156.317398
 30
0.0
 11
637.367065
 21
208.278931
 31
0.0
  0
ARC
  5
14E
330
1F
100
AcDbEntity
  8
0
 62
     7
370
    35
100
AcDbCircle
 10
742.559143
 20
135.316696
 30
0.0
 40
10.0
100
AcDbArc
 50
150.000011
 51
330.000009
  0
LINE
  5
14F
330
1F
100
AcDbEntity
  8
0
 62
     7
370
    35
100
AcDbLine
 10
798.71936
 20
212.589111
 30
0.0
 11
751.21936
 21
130.316696
 31
0.0
  0
ARC
  5
150
330
1F
100
AcDbEntity
  8
0
 62
     7
370
    35
100
AcDbCircle
 10
777.068726
 20
225.089111
 30
0.0
 40
25.0
100
AcDbArc
 50
330.000009
 51
67.779034
  0
LINE
  5
151
330
1F
100
AcDbEntity
  8
0
 62
     7
370
    35
100
AcDbLine
 10
755.473267
 20
260.916962
 30
0.0
 11
786.523193
 21
248.232422
 31
0.0
  0
ARC
  5
152
330
1F
100
AcDbEntity
  8
0
 62
     7
370
    35
100
AcDbCircle
 10
764.927734
 20
284.060242
 30
0.0
 40
25.0
100
AcDbArc
 50
166.601564
 51
247.779036
  0
ARC
  5
153
330
1F
100
AcDbEntity
  8
0
 62
     7
370
    35
100
AcDbCircle
 10
730.880371
 20
292.170502
 30
0.0
 40
10.0
100
AcDbArc
 50
346.601559
 51
166.601564
  0
ARC
  5
154
330
1F
100
AcDbEntity
  8
0
 62
     7
370
    35
100
AcDbCircle
 10
764.927734
 20
284.060242
 30
0.0
 40
45.0
100
AcDbArc
 50
166.601564
 51
247.779036
  0
LINE
  5
155
330
1F
100
AcDbEntity
  8
0
 62
     7
370
    35
100
AcDbLine
 10
747.909668
 20
242.402313
 30
0.0
 11
778.959595
 21
229.717773
 31
0.0
  0
ARC
  5
156
330
1F
100
AcDbEntity
  8
0
 62
     7
370
    35
100
AcDbCircle
 10
777.068726
 20
225.089111
 30
0.0
 40
5.000000000000002
100
AcDbArc
 50
330.000009
 51
67.779034
  0
LINE
  5
157
330
1F
100
AcDbEntity
  8
0
 62
     7
370
    35
100
AcDbLine
 10
733.898865
 20
140.316696
 30
0.0
 11
781.398865
 21
222.589111
 31
0.0
  0
LINE
  5
158
330
1F
100
AcDbEntity
  8
0
 62
     7
370
    35
100
AcDbLine
 10
778.760071
 20
201.018616
 30
0.0
 11
781.358154
 21
199.518616
 31
0.0
  0
LINE
  5
159
330
1F
100
AcDbEntity
  8
0
 62
     7
370
    35
100
AcDbLine
 10
751.358154
 20
147.557068
 30
0.0
 11
781.358154
 21
199.518616
 31
0.0
  0
LINE
  5
15A
330
1F
100
AcDbEntity
  8
0
 62
     7
370
    35
100
AcDbLine
 10
751.358154
 20
147.557068
 30
0.0
 11
748.760132
 21
149.057068
 31
0.0
  0
LINE
  5
15B
330
1F
100
AcDbEntity
  8
0
 62
     7
370
    35
100
AcDbLine
 10
778.760071
 20
201.018616
 30
0.0
 11
748.760132
 21
149.057068
 31
0.0
  0
ARC
  5
15C
330
1F
100
AcDbEntity
  8
0
 62
     7
370
    35
100
AcDbCircle
 10
763.405029
 20
221.72644
 30
0.0
 40
10.0
100
AcDbArc
 50
330.000009
 51
150.000011
  0
LINE
  5
15D
330
1F
100
AcDbEntity
  8
0
 62
     7
370
    35
100
AcDbLine
 10
707.244751
 20
144.45401
 30
0.0
 11
754.744751
 21
226.72644
 31
0.0
  0
ARC
  5
15E
330
1F
100
AcDbEntity
  8
0
 62
     7
370
    35
100
AcDbCircle
 10
728.895386
 20
131.95401
 30
0.0
 40
25.0
100
AcDbArc
 50
150.000011
 51
247.779036
  0
LINE
  5
15F
330
1F
100
AcDbEntity
  8
0
 62
     7
370
    35
100
AcDbLine
 10
750.490967
 20
96.126175
 30
0.0
 11
719.440918
 21
108.810707
 31
0.0
  0
ARC
  5
160
330
1F
100
AcDbEntity
  8
0
 62
     7
370
    35
100
AcDbCircle
 10
741.036438
 20
72.982872
 30
0.0
 40
25.0
100
AcDbArc
 50
346.601559
 51
67.779034
  0
ARC
  5
161
330
1F
100
AcDbEntity
  8
0
 62
     7
370
    35
100
AcDbCircle
 10
775.083801
 20
64.87262
 30
0.0
 40
10.0
100
AcDbArc
 50
166.601564
 51
346.601559
  0
ARC
  5
162
330
1F
100
AcDbEntity
  8
0
 62
     7
370
    35
100
AcDbCircle
 10
741.036438
 20
72.982872
 30
0.0
 40
45.0
100
AcDbArc
 50
346.601559
 51
67.779034
  0
LINE
  5
163
330
1F
100
AcDbEntity
  8
0
 62
     7
370
    35
100
AcDbLine
 10
758.054504
 20
114.640823
 30
0.0
 11
727.004517
 21
127.325348
 31
0.0
  0
ARC
  5
164
330
1F
100
AcDbEntity
  8
0
 62
     7
370
    35
100
AcDbCircle
 10
728.895386
 20
131.95401
 30
0.0
 40
5.000000000000002
100
AcDbArc
 50
150.000011
 51
247.779036
  0
LINE
  5
165
330
1F
100
AcDbEntity
  8
0
 62
     7
370
    35
100
AcDbLine
 10
772.065308
 20
216.72644
 30
0.0
 11
724.565308
 21
134.45401
 31
0.0
  0
LINE
  5
166
330
1F
100
AcDbEntity
  8
0
 62
     7
370
    35
100
AcDbLine
 10
727.204102
 20
156.024536
 30
0.0
 11
724.605957
 21
157.524536
 31
0.0
  0
LINE
  5
167
330
1F
100
AcDbEntity
  8
0
 62
     7
370
    35
100
AcDbLine
 10
754.605957
 20
209.486053
 30
0.0
 11
724.605957
 21
157.524536
 31
0.0
  0
LINE
  5
168
330
1F
100
AcDbEntity
  8
0
 62
     7
370
    35
100
AcDbLine
 10
754.605957
 20
209.486053
 30
0.0
 11
757.204102
 21
207.986053
 31
0.0
  0
LINE
  5
169
330
1F
100
AcDbEntity
  8
0
 62
     7
370
    35
100
AcDbLine
 10
727.204102
 20
156.024536
 30
0.0
 11
757.204102
 21
207.986053
 31
0.0
  0
ARC
  5
16A
330
1F
100
AcDbEntity
  8
0
 62
     7
370
    35
100
AcDbCircle
 10
802.199829
 20
132.556839
 30
0.0
 40
10.0
100
AcDbArc
 50
150.000011
 51
330.000009
  0
LINE
  5
16B
330
1F
100
AcDbEntity
  8
0
 62
     7
370
    35
100
AcDbLine
 10
858.360046
 20
209.829254
 30
0.0
 11
810.860046
 21
127.556839
 31
0.0
  0
ARC
  5
16C
330
1F
100
AcDbEntity
  8
0
 62
     7
370
    35
100
AcDbCircle
 10
836.709412
 20
222.329254
 30
0.0
 40
25.0
100
AcDbArc
 50
330.000009
 51
67.779034
  0
LINE
  5
16D
330
1F
100
AcDbEntity
  8
0
 62
     7
370
    35
100
AcDbLine
 10
815.113892
 20
258.157104
 30
0.0
 11
846.163879
 21
245.472565
 31
0.0
  0
ARC
  5
16E
330
1F
100
AcDbEntity
  8
0
 62
     7
370
    35
100
AcDbCircle
 10
824.568359
 20
281.300385
 30
0.0
 40
25.0
100
AcDbArc
 50
166.601564
 51
247.779036
  0
ARC
  5
16F
330
1F
100
AcDbEntity
  8
0
 62
     7
370
    35
100
AcDbCircle
 10
790.520996
 20
289.410645
 30
0.0
 40
10.0
100
AcDbArc
 50
346.601559
 51
166.601564
  0
ARC
  5
170
330
1F
100
AcDbEntity
  8
0
 62
     7
370
    35
100
AcDbCircle
 10
824.568359
 20
281.300385
 30
0.0
 40
45.0
100
AcDbArc
 50
166.601564
 51
247.779036
  0
LINE
  5
171
330
1F
100
AcDbEntity
  8
0
 62
     7
370
    35
100
AcDbLine
 10
807.550293
 20
239.642456
 30
0.0
 11
838.600281
 21
226.957916
 31
0.0
  0
ARC
  5
172
330
1F
100
AcDbEntity
  8
0
 62
     7
370
    35
100
AcDbCircle
 10
836.709412
 20
222.329254
 30
0.0
 40
5.000000000000002
100
AcDbArc
 50
330.000009
 51
67.779034
  0
LINE
  5
173
330
1F
100
AcDbEntity
  8
0
 62
     7
370
    35
100
AcDbLine
 10
793.539551
 20
137.556839
 30
0.0
 11
841.039551
 21
219.829254
 31
0.0
  0
LINE
  5
174
330
1F
100
AcDbEntity
  8
0
 62
     7
370
    35
100
AcDbLine
 10
838.400757
 20
198.258759
 30
0.0
 11
840.99884
 21
196.758759
 31
0.0
  0
LINE
  5
175
330
1F
100
AcDbEntity
  8
0
 62
     7
370
    35
100
AcDbLine
 10
810.99884
 20
144.797226
 30
0.0
 11
840.99884
 21
196.758759
 31
0.0
  0
LINE
  5
176
330
1F
100
AcDbEntity
  8
0
 62
     7
370
    35
100
AcDbLine
 10
810.99884
 20
144.797226
 30
0.0
 11
808.400757
 21
146.297226
 31
0.0
  0
LINE
  5
177
330
1F
100
AcDbEntity
  8
0
 62
     7
370
    35
100
AcDbLine
 10
838.400757
 20
198.258759
 30
0.0
 11
808.400757
 21
146.297226
 31
0.0
  0
ARC
  5
178
330
1F
100
AcDbEntity
  8
0
 62
     7
370
    35
100
AcDbCircle
 10
823.045715
 20
218.966583
 30
0.0
 40
10.0
100
AcDbArc
 50
330.000009
 51
150.000011
  0
LINE
  5
179
330
1F
100
AcDbEntity
  8
0
 62
     7
370
    35
100
AcDbLine
 10
766.885498
 20
141.694153
 30
0.0
 11
814.385437
 21
223.966583
 31
0.0
  0
ARC
  5
17A
330
1F
100
AcDbEntity
  8
0
 62
     7
370
    35
100
AcDbCircle
 10
788.536133
 20
129.194153
 30
0.0
 40
25.0
100
AcDbArc
 50
150.000011
 51
247.779036
  0
LINE
  5
17B
330
1F
100
AcDbEntity
  8
0
 62
     7
370
    35
100
AcDbLine
 10
810.131592
 20
93.366318
 30
0.0
 11
779.081604
 21
106.05085
 31
0.0
  0
ARC
  5
17C
330
1F
100
AcDbEntity
  8
0
 62
     7
370
    35
100
AcDbCircle
 10
800.677124
 20
70.223015
 30
0.0
 40
25.0
100
AcDbArc
 50
346.601559
 51
67.779034
  0
ARC
  5
17D
330
1F
100
AcDbEntity
  8
0
 62
     7
370
    35
100
AcDbCircle
 10
834.724487
 20
62.112766
 30
0.0
 40
10.0
100
AcDbArc
 50
166.601564
 51
346.601559
  0
ARC
  5
17E
330
1F
100
AcDbEntity
  8
0
 62
     7
370
    35
100
AcDbCircle
 10
800.677124
 20
70.223015
 30
0.0
 40
45.0
100
AcDbArc
 50
346.601559
 51
67.779034
  0
LINE
  5
17F
330
1F
100
AcDbEntity
  8
0
 62
     7
370
    35
100
AcDbLine
 10
817.69519
 20
111.880966
 30
0.0
 11
786.645203
 21
124.565491
 31
0.0
  0
ARC
  5
180
330
1F
100
AcDbEntity
  8
0
 62
     7
370
    35
100
AcDbCircle
 10
788.536133
 20
129.194153
 30
0.0
 40
5.000000000000002
100
AcDbArc
 50
150.000011
 51
247.779036
  0
LINE
  5
181
330
1F
100
AcDbEntity
  8
0
 62
     7
370
    35
100
AcDbLine
 10
831.705933
 20
213.966583
 30
0.0
 11
784.205933
 21
131.694153
 31
0.0
  0
LINE
  5
182
330
1F
100
AcDbEntity
  8
0
 62
     7
370
    35
100
AcDbLine
 10
786.844727
 20
153.264679
 30
0.0
 11
784.246704
 21
154.764679
 31
0.0
  0
LINE
  5
183
330
1F
100
AcDbEntity
  8
0
 62
     7
370
    35
100
AcDbLine
 10
814.246704
 20
206.726196
 30
0.0
 11
784.246704
 21
154.764679
 31
0.0
  0
LINE
  5
184
330
1F
100
AcDbEntity
  8
0
 62
     7
370
    35
100
AcDbLine
 10
814.246704
 20
206.726196
 30
0.0
 11
816.844727
 21
205.226196
 31
0.0
  0
LINE
  5
185
330
1F
100
AcDbEntity
  8
0
 62
     7
370
    35
100
AcDbLine
 10
786.844727
 20
153.264679
 30
0.0
 11
816.844727
 21
205.226196
 31
0.0
  0
ARC
  5
186
330
1F
100
AcDbEntity
  8
0
 62
     7
370
    35
100
AcDbCircle
 10
924.757874
 20
130.490662
 30
0.0
 40
10.0
100
AcDbArc
 50
150.000011
 51
330.000009
  0
LINE
  5
187
330
1F
100
AcDbEntity
  8
0
 62
     7
370
    35
100
AcDbLine
 10
980.918152
 20
207.763077
 30
0.0
 11
933.418152
 21
125.490662
 31
0.0
  0
ARC
  5
188
330
1F
100
AcDbEntity
  8
0
 62
     7
370
    35
100
AcDbCircle
 10
959.267517
 20
220.263062
 30
0.0
 40
25.0
100
AcDbArc
 50
330.000009
 51
67.779034
  0
LINE
  5
189
330
1F
100
AcDbEntity
  8
0
 62
     7
370
    35
100
AcDbLine
 10
937.671997
 20
256.090912
 30
0.0
 11
968.721985
 21
243.406372
 31
0.0
  0
ARC
  5
18A
330
1F
100
AcDbEntity
  8
0
 62
     7
370
    35
100
AcDbCircle
 10
947.126465
 20
279.234222
 30
0.0
 40
25.0
100
AcDbArc
 50
166.601564
 51
247.779036
  0
ARC
  5
18B
330
1F
100
AcDbEntity
  8
0
 62
     7
370
    35
100
AcDbCircle
 10
913.079102
 20
287.344452
 30
0.0
 40
10.0
100
AcDbArc
 50
346.601559
 51
166.601564
  0
ARC
  5
18C
330
1F
100
AcDbEntity
  8
0
 62
     7
370
    35
100
AcDbCircle
 10
947.126465
 20
279.234222
 30
0.0
 40
45.0
100
AcDbArc
 50
166.601564
 51
247.779036
  0
LINE
  5
18D
330
1F
100
AcDbEntity
  8
0
 62
     7
370
    35
100
AcDbLine
 10
930.108398
 20
237.576263
 30
0.0
 11
961.158386
 21
224.891724
 31
0.0
  0
ARC
  5
18E
330
1F
100
AcDbEntity
  8
0
 62
     7
370
    35
100
AcDbCircle
 10
959.267517
 20
220.263062
 30
0.0
 40
5.000000000000002
100
AcDbArc
 50
330.000009
 51
67.779034
  0
LINE
  5
18F
330
1F
100
AcDbEntity
  8
0
 62
     7
370
    35
100
AcDbLine
 10
916.097656
 20
135.490662
 30
0.0
 11
963.597656
 21
217.763077
 31
0.0
  0
LINE
  5
190
330
1F
100
AcDbEntity
  8
0
 62
     7
370
    35
100
AcDbLine
 10
960.958862
 20
196.192566
 30
0.0
 11
963.556946
 21
194.692566
 31
0.0
  0
LINE
  5
191
330
1F
100
AcDbEntity
  8
0
 62
     7
370
    35
100
AcDbLine
 10
933.556946
 20
142.731033
 30
0.0
 11
963.556946
 21
194.692566
 31
0.0
  0
LINE
  5
192
330
1F
100
AcDbEntity
  8
0
 62
     7
370
    35
100
AcDbLine
 10
933.556946
 20
142.731033
 30
0.0
 11
930.958862
 21
144.231033
 31
0.0
  0
LINE
  5
193
330
1F
100
AcDbEntity
  8
0
 62
     7
370
    35
100
AcDbLine
 10
960.958862
 20
196.192566
 30
0.0
 11
930.958862
 21
144.231033
 31
0.0
  0
ARC
  5
194
330
1F
100
AcDbEntity
  8
0
 62
     7
370
    35
100
AcDbCircle
 10
945.60376
 20
216.900391
 30
0.0
 40
10.0
100
AcDbArc
 50
330.000009
 51
150.000011
  0
LINE
  5
195
330
1F
100
AcDbEntity
  8
0
 62
     7
370
    35
100
AcDbLine
 10
889.443542
 20
139.62796
 30
0.0
 11
936.943542
 21
221.900391
 31
0.0
  0
ARC
  5
196
330
1F
100
AcDbEntity
  8
0
 62
     7
370
    35
100
AcDbCircle
 10
911.094177
 20
127.127975
 30
0.0
 40
25.0
100
AcDbArc
 50
150.000011
 51
247.779036
  0
LINE
  5
197
330
1F
100
AcDbEntity
  8
0
 62
     7
370
    35
100
AcDbLine
 10
932.689697
 20
91.300133
 30
0.0
 11
901.639709
 21
103.984665
 31
0.0
  0
ARC
  5
198
330
1F
100
AcDbEntity
  8
0
 62
     7
370
    35
100
AcDbCircle
 10
923.235229
 20
68.15683
 30
0.0
 40
25.0
100
AcDbArc
 50
346.601559
 51
67.779034
  0
ARC
  5
199
330
1F
100
AcDbEntity
  8
0
 62
     7
370
    35
100
AcDbCircle
 10
957.282593
 20
60.046581
 30
0.0
 40
10.0
100
AcDbArc
 50
166.601564
 51
346.601559
  0
ARC
  5
19A
330
1F
100
AcDbEntity
  8
0
 62
     7
370
    35
100
AcDbCircle
 10
923.235229
 20
68.15683
 30
0.0
 40
45.0
100
AcDbArc
 50
346.601559
 51
67.779034
  0
LINE
  5
19B
330
1F
100
AcDbEntity
  8
0
 62
     7
370
    35
100
AcDbLine
 10
940.253296
 20
109.814781
 30
0.0
 11
909.203308
 21
122.499313
 31
0.0
  0
ARC
  5
19C
330
1F
100
AcDbEntity
  8
0
 62
     7
370
    35
100
AcDbCircle
 10
911.094177
 20
127.127975
 30
0.0
 40
5.000000000000002
100
AcDbArc
 50
150.000011
 51
247.779036
  0
LINE
  5
19D
330
1F
100
AcDbEntity
  8
0
 62
     7
370
    35
100
AcDbLine
 10
954.264038
 20
211.900391
 30
0.0
 11
906.764038
 21
129.627975
 31
0.0
  0
LINE
  5
19E
330
1F
100
AcDbEntity
  8
0
 62
     7
370
    35
100
AcDbLine
 10
909.402832
 20
151.198486
 30
0.0
 11
906.804749
 21
152.698486
 31
0.0
  0
LINE
  5
19F
330
1F
100
AcDbEntity
  8
0
 62
     7
370
    35
100
AcDbLine
 10
936.804749
 20
204.660004
 30
0.0
 11
906.804749
 21
152.698486
 31
0.0
  0
LINE
  5
1A0
330
1F
100
AcDbEntity
  8
0
 62
     7
370
    35
100
AcDbLine
 10
936.804749
 20
204.660004
 30
0.0
 11
939.402832
 21
203.160004
 31
0.0
  0
LINE
  5
1A1
330
1F
100
AcDbEntity
  8
0
 62
     7
370
    35
100
AcDbLine
 10
909.402832
 20
151.198486
 30
0.0
 11
939.402832
 21
203.160004
 31
0.0
  0
ARC
  5
1A2
330
1F
100
AcDbEntity
  8
0
 62
     7
370
    35
100
AcDbCircle
 10
863.723633
 20
129.197983
 30
0.0
 40
10.0
100
AcDbArc
 50
150.000011
 51
330.000009
  0
LINE
  5
1A3
330
1F
100
AcDbEntity
  8
0
 62
     7
370
    35
100
AcDbLine
 10
919.88385
 20
206.470398
 30
0.0
 11
872.38385
 21
124.197983
 31
0.0
  0
ARC
  5
1A4
330
1F
100
AcDbEntity
  8
0
 62
     7
370
    35
100
AcDbCircle
 10
898.233215
 20
218.970398
 30
0.0
 40
25.0
100
AcDbArc
 50
330.000009
 51
67.779034
  0
LINE
  5
1A5
330
1F
100
AcDbEntity
  8
0
 62
     7
370
    35
100
AcDbLine
 10
876.637695
 20
254.798248
 30
0.0
 11
907.687683
 21
242.113708
 31
0.0
  0
ARC
  5
1A6
330
1F
100
AcDbEntity
  8
0
 62
     7
370
    35
100
AcDbCircle
 10
886.092163
 20
277.941528
 30
0.0
 40
25.0
100
AcDbArc
 50
166.601564
 51
247.779036
  0
ARC
  5
1A7
330
1F
100
AcDbEntity
  8
0
 62
     7
370
    35
100
AcDbCircle
 10
852.0448
 20
286.051788
 30
0.0
 40
10.0
100
AcDbArc
 50
346.601559
 51
166.601564
  0
ARC
  5
1A8
330
1F
100
AcDbEntity
  8
0
 62
     7
370
    35
100
AcDbCircle
 10
886.092163
 20
277.941528
 30
0.0
 40
45.0
100
AcDbArc
 50
166.601564
 51
247.779036
  0
LINE
  5
1A9
330
1F
100
AcDbEntity
  8
0
 62
     7
370
    35
100
AcDbLine
 10
869.074097
 20
236.2836
 30
0.0
 11
900.124084
 21
223.59906
 31
0.0
  0
ARC
  5
1AA
330
1F
100
AcDbEntity
  8
0
 62
     7
370
    35
100
AcDbCircle
 10
898.233215
 20
218.970398
 30
0.0
 40
5.000000000000002
100
AcDbArc
 50
330.000009
 51
67.779034
  0
LINE
  5
1AB
330
1F
100
AcDbEntity
  8
0
 62
     7
370
    35
100
AcDbLine
 10
855.063354
 20
134.197983
 30
0.0
 11
902.563354
 21
216.470398
 31
0.0
  0
LINE
  5
1AC
330
1F
100
AcDbEntity
  8
0
 62
     7
370
    35
100
AcDbLine
 10
899.924561
 20
194.899902
 30
0.0
 11
902.522644
 21
193.399902
 31
0.0
  0
LINE
  5
1AD
330
1F
100
AcDbEntity
  8
0
 62
     7
370
    35
100
AcDbLine
 10
872.522644
 20
141.43837
 30
0.0
 11
902.522644
 21
193.399902
 31
0.0
  0
LINE
  5
1AE
330
1F
100
AcDbEntity
  8
0
 62
     7
370
    35
100
AcDbLine
 10
872.522644
 20
141.43837
 30
0.0
 11
869.924561
 21
142.93837
 31
0.0
  0
LINE
  5
1AF
330
1F
100
AcDbEntity
  8
0
 62
     7
370
    35
100
AcDbLine
 10
899.924561
 20
194.899902
 30
0.0
 11
869.924561
 21
142.93837
 31
0.0
  0
ARC
  5
1B0
330
1F
100
AcDbEntity
  8
0
 62
     7
370
    35
100
AcDbCircle
 10
884.569519
 20
215.607727
 30
0.0
 40
10.0
100
AcDbArc
 50
330.000009
 51
150.000011
  0
LINE
  5
1B1
330
1F
100
AcDbEntity
  8
0
 62
     7
370
    35
100
AcDbLine
 10
828.409241
 20
138.335297
 30
0.0
 11
875.909241
 21
220.607727
 31
0.0
  0
ARC
  5
1B2
330
1F
100
AcDbEntity
  8
0
 62
     7
370
    35
100
AcDbCircle
 10
850.059875
 20
125.835297
 30
0.0
 40
25.0
100
AcDbArc
 50
150.000011
 51
247.779036
  0
LINE
  5
1B3
330
1F
100
AcDbEntity
  8
0
 62
     7
370
    35
100
AcDbLine
 10
871.655396
 20
90.007462
 30
0.0
 11
840.605408
 21
102.691994
 31
0.0
  0
ARC
  5
1B4
330
1F
100
AcDbEntity
  8
0
 62
     7
370
    35
100
AcDbCircle
 10
862.200928
 20
66.864159
 30
0.0
 40
25.0
100
AcDbArc
 50
346.601559
 51
67.779034
  0
ARC
  5
1B5
330
1F
100
AcDbEntity
  8
0
 62
     7
370
    35
100
AcDbCircle
 10
896.248291
 20
58.75391
 30
0.0
 40
10.0
100
AcDbArc
 50
166.601564
 51
346.601559
  0
ARC
  5
1B6
330
1F
100
AcDbEntity
  8
0
 62
     7
370
    35
100
AcDbCircle
 10
862.200928
 20
66.864159
 30
0.0
 40
45.0
100
AcDbArc
 50
346.601559
 51
67.779034
  0
LINE
  5
1B7
330
1F
100
AcDbEntity
  8
0
 62
     7
370
    35
100
AcDbLine
 10
879.218994
 20
108.52211
 30
0.0
 11
848.169006
 21
121.206635
 31
0.0
  0
ARC
  5
1B8
330
1F
100
AcDbEntity
  8
0
 62
     7
370
    35
100
AcDbCircle
 10
850.059875
 20
125.835297
 30
0.0
 40
5.000000000000002
100
AcDbArc
 50
150.000011
 51
247.779036
  0
LINE
  5
1B9
330
1F
100
AcDbEntity
  8
0
 62
     7
370
    35
100
AcDbLine
 10
893.229736
 20
210.607727
 30
0.0
 11
845.729736
 21
128.335297
 31
0.0
  0
LINE
  5
1BA
330
1F
100
AcDbEntity
  8
0
 62
     7
370
    35
100
AcDbLine
 10
848.36853
 20
149.905823
 30
0.0
 11
845.770447
 21
151.405823
 31
0.0
  0
LINE
  5
1BB
330
1F
100
AcDbEntity
  8
0
 62
     7
370
    35
100
AcDbLine
 10
875.770447
 20
203.36734
 30
0.0
 11
845.770447
 21
151.405823
 31
0.0
  0
LINE
  5
1BC
330
1F
100
AcDbEntity
  8
0
 62
     7
370
    35
100
AcDbLine
 10
875.770447
 20
203.36734
 30
0.0
 11
878.36853
 21
201.86734
 31
0.0
  0
LINE
  5
1BD
330
1F
100
AcDbEntity
  8
0
 62
     7
370
    35
100
AcDbLine
 10
848.36853
 20
149.905823
 30
0.0
 11
878.36853
 21
201.86734
 31
0.0
  0
ARC
  5
1BE
330
1F
100
AcDbEntity
  8
0
 62
     7
370
    35
100
AcDbCircle
 10
1005.333313
 20
220.114288
 30
0.0
 40
10.0
100
AcDbArc
 50
330.000009
 51
150.000011
  0
LINE
  5
1BF
330
1F
100
AcDbEntity
  8
0
 62
     7
370
    35
100
AcDbLine
 10
949.173035
 20
142.841858
 30
0.0
 11
996.673035
 21
225.114288
 31
0.0
  0
ARC
  5
1C0
330
1F
100
AcDbEntity
  8
0
 62
     7
370
    35
100
AcDbCircle
 10
970.823669
 20
130.341858
 30
0.0
 40
25.0
100
AcDbArc
 50
150.000011
 51
247.779036
  0
LINE
  5
1C1
330
1F
100
AcDbEntity
  8
0
 62
     7
370
    35
100
AcDbLine
 10
992.419189
 20
94.514023
 30
0.0
 11
961.369202
 21
107.198555
 31
0.0
  0
ARC
  5
1C2
330
1F
100
AcDbEntity
  8
0
 62
     7
370
    35
100
AcDbCircle
 10
982.964722
 20
71.370712
 30
0.0
 40
25.0
100
AcDbArc
 50
346.601559
 51
67.779034
  0
ARC
  5
1C3
330
1F
100
AcDbEntity
  8
0
 62
     7
370
    35
100
AcDbCircle
 10
1017.012085
 20
63.260468
 30
0.0
 40
10.0
100
AcDbArc
 50
166.601564
 51
346.601559
  0
ARC
  5
1C4
330
1F
100
AcDbEntity
  8
0
 62
     7
370
    35
100
AcDbCircle
 10
982.964722
 20
71.370712
 30
0.0
 40
45.0
100
AcDbArc
 50
346.601559
 51
67.779034
  0
LINE
  5
1C5
330
1F
100
AcDbEntity
  8
0
 62
     7
370
    35
100
AcDbLine
 10
999.982788
 20
113.028671
 30
0.0
 11
968.9328
 21
125.713196
 31
0.0
  0
ARC
  5
1C6
330
1F
100
AcDbEntity
  8
0
 62
     7
370
    35
100
AcDbCircle
 10
970.823669
 20
130.341858
 30
0.0
 40
5.000000000000002
100
AcDbArc
 50
150.000011
 51
247.779036
  0
LINE
  5
1C7
330
1F
100
AcDbEntity
  8
0
 62
     7
370
    35
100
AcDbLine
 10
1013.99353
 20
215.114288
 30
0.0
 11
966.493591
 21
132.841858
 31
0.0
  0
LINE
  5
1C8
330
1F
100
AcDbEntity
  8
0
 62
     7
370
    35
100
AcDbLine
 10
969.132324
 20
154.412369
 30
0.0
 11
966.534241
 21
155.912369
 31
0.0
  0
LINE
  5
1C9
330
1F
100
AcDbEntity
  8
0
 62
     7
370
    35
100
AcDbLine
 10
996.534241
 20
207.873901
 30
0.0
 11
966.534241
 21
155.912369
 31
0.0
  0
LINE
  5
1CA
330
1F
100
AcDbEntity
  8
0
 62
     7
370
    35
100
AcDbLine
 10
996.534241
 20
207.873901
 30
0.0
 11
999.132324
 21
206.373901
 31
0.0
  0
LINE
  5
1CB
330
1F
100
AcDbEntity
  8
0
 62
     7
370
    35
100
AcDbLine
 10
969.132324
 20
154.412369
 30
0.0
 11
999.132324
 21
206.373901
 31
0.0
  0
LINE
  5
1CC
330
1F
100
AcDbEntity
  8
0
 62
     7
370
    35
100
AcDbLine
 10
1040.077271
 20
180.440002
 30
0.0
 11
1037.479248
 21
181.940002
 31
0.0
  0
LINE
  5
1CD
330
1F
100
AcDbEntity
  8
0
 62
     7
370
    35
100
AcDbLine
 10
1040.077271
 20
180.440002
 30
0.0
 11
1067.520752
 21
227.973419
 31
0.0
  0
LINE
  5
1CE
330
1F
100
AcDbEntity
  8
0
 62
     7
370
    35
100
AcDbLine
 10
1064.922607
 20
229.473419
 30
0.0
 11
1037.479248
 21
181.940002
 31
0.0
  0
ARC
  5
1CF
330
1F
100
AcDbEntity
  8
0
 62
     7
370
    35
100
AcDbCircle
 10
1072.957031
 20
63.307327
 30
0.0
 40
10.0
100
AcDbArc
 50
166.601564
 51
346.601559
  0
ARC
  5
1D0
330
1F
100
AcDbEntity
  8
0
 62
     7
370
    35
100
AcDbCircle
 10
1061.278198
 20
220.161133
 30
0.0
 40
10.0
100
AcDbArc
 50
68.626934
 51
150.000011
  0
LINE
  5
1D1
330
1F
100
AcDbEntity
  8
0
 62
     7
370
    35
100
AcDbLine
 10
1005.117981
 20
142.888718
 30
0.0
 11
1052.618042
 21
225.161133
 31
0.0
  0
ARC
  5
1D2
330
1F
100
AcDbEntity
  8
0
 62
     7
370
    35
100
AcDbCircle
 10
1026.768677
 20
130.388718
 30
0.0
 40
25.0
100
AcDbArc
 50
150.000011
 51
247.779036
  0
LINE
  5
1D3
330
1F
100
AcDbEntity
  8
0
 62
     7
370
    35
100
AcDbLine
 10
1048.364136
 20
94.560883
 30
0.0
 11
1017.314148
 21
107.245415
 31
0.0
  0
ARC
  5
1D4
330
1F
100
AcDbEntity
  8
0
 62
     7
370
    35
100
AcDbCircle
 10
1038.909668
 20
71.41758
 30
0.0
 40
25.0
100
AcDbArc
 50
346.601559
 51
67.779034
  0
ARC
  5
1D5
330
1F
100
AcDbEntity
  8
0
 62
     7
370
    35
100
AcDbCircle
 10
1038.909668
 20
71.41758
 30
0.0
 40
45.0
100
AcDbArc
 50
346.601559
 51
67.779034
  0
LINE
  5
1D6
330
1F
100
AcDbEntity
  8
0
 62
     7
370
    35
100
AcDbLine
 10
1055.927734
 20
113.075531
 30
0.0
 11
1024.877686
 21
125.760056
 31
0.0
  0
ARC
  5
1D7
330
1F
100
AcDbEntity
  8
0
 62
     7
370
    35
100
AcDbCircle
 10
1026.768677
 20
130.388718
 30
0.0
 40
5.000000000000002
100
AcDbArc
 50
150.000011
 51
247.779036
  0
LINE
  5
1D8
330
1F
100
AcDbEntity
  8
0
 62
     7
370
    35
100
AcDbLine
 10
1069.938477
 20
215.161133
 30
0.0
 11
1022.438538
 21
132.888718
 31
0.0
  0
ARC
  5
1D9
330
1F
100
AcDbEntity
  8
0
 62
     7
370
    35
100
AcDbCircle
 10
1061.278198
 20
220.161133
 30
0.0
 40
10.0
100
AcDbArc
 50
330.000009
 51
51.373083
  0
LINE
  5
1DA
330
1F
100
AcDbEntity
  8
0
 62
     7
370
    35
100
AcDbLine
 10
1005.107666
 20
173.920822
 30
0.0
 11
1007.70575
 21
172.420822
 31
0.0
  0
LINE
  5
1DB
330
1F
100
AcDbEntity
  8
0
 62
     7
370
    35
100
AcDbLine
 10
1005.107666
 20
173.920822
 30
0.0
 11
977.664246
 21
126.387405
 31
0.0
  0
LINE
  5
1DC
330
1F
100
AcDbEntity
  8
0
 62
     7
370
    35
100
AcDbLine
 10
980.262329
 20
124.887405
 30
0.0
 11
1007.70575
 21
172.420822
 31
0.0
  0
ARC
  5
1DD
330
1F
100
AcDbEntity
  8
0
 62
     7
370
    35
100
AcDbCircle
 10
972.227966
 20
291.053497
 30
0.0
 40
10.0
100
AcDbArc
 50
346.601551
 51
166.601551
  0
ARC
  5
1DE
330
1F
100
AcDbEntity
  8
0
 62
     7
370
    35
100
AcDbCircle
 10
983.906738
 20
134.199677
 30
0.0
 40
10.0
100
AcDbArc
 50
248.626929
 51
330.000003
  0
LINE
  5
1DF
330
1F
100
AcDbEntity
  8
0
 62
     7
370
    35
100
AcDbLine
 10
1040.067017
 20
211.472092
 30
0.0
 11
992.566956
 21
129.199677
 31
0.0
  0
ARC
  5
1E0
330
1F
100
AcDbEntity
  8
0
 62
     7
370
    35
100
AcDbCircle
 10
1018.416321
 20
223.972092
 30
0.0
 40
25.0
100
AcDbArc
 50
330.000003
 51
67.779027
  0
LINE
  5
1E1
330
1F
100
AcDbEntity
  8
0
 62
     7
370
    35
100
AcDbLine
 10
996.820862
 20
259.799927
 30
0.0
 11
1027.87085
 21
247.115402
 31
0.0
  0
ARC
  5
1E2
330
1F
100
AcDbEntity
  8
0
 62
     7
370
    35
100
AcDbCircle
 10
1006.27533
 20
282.943237
 30
0.0
 40
25.0
100
AcDbArc
 50
166.601551
 51
247.779022
  0
ARC
  5
1E3
330
1F
100
AcDbEntity
  8
0
 62
     7
370
    35
100
AcDbCircle
 10
1006.27533
 20
282.943237
 30
0.0
 40
45.0
100
AcDbArc
 50
166.601551
 51
247.779022
  0
LINE
  5
1E4
330
1F
100
AcDbEntity
  8
0
 62
     7
370
    35
100
AcDbLine
 10
989.257263
 20
241.285294
 30
0.0
 11
1020.307251
 21
228.600754
 31
0.0
  0
ARC
  5
1E5
330
1F
100
AcDbEntity
  8
0
 62
     7
370
    35
100
AcDbCircle
 10
1018.416321
 20
223.972092
 30
0.0
 40
5.000000000000002
100
AcDbArc
 50
330.000003
 51
67.779027
  0
LINE
  5
1E6
330
1F
100
AcDbEntity
  8
0
 62
     7
370
    35
100
AcDbLine
 10
975.24646
 20
139.199677
 30
0.0
 11
1022.74646
 21
221.472092
 31
0.0
  0
ARC
  5
1E7
330
1F
100
AcDbEntity
  8
0
 62
     7
370
    35
100
AcDbCircle
 10
983.906738
 20
134.199677
 30
0.0
 40
10.0
100
AcDbArc
 50
149.999997
 51
231.373072
  0
LINE
  5
1E8
330
1F
100
AcDbEntity
  8
0
 62
     7
370
    35
100
AcDbLine
 10
171.326721
 20
191.199265
 30
0.0
 11
215.826721
 21
268.275513
 31
0.0
  0
ARC
  5
1E9
330
1F
100
AcDbEntity
  8
0
 62
     7
370
    35
100
AcDbCircle
 10
176.522873
 20
188.199265
 30
0.0
 40
6.0
100
AcDbArc
 50
149.999997
 51
239.999997
  0
ARC
  5
1EA
330
1F
100
AcDbEntity
  8
0
 62
     7
370
    35
100
AcDbCircle
 10
221.022873
 20
265.275513
 30
0.0
 40
6.0
100
AcDbArc
 50
60.000002
 51
149.999997
  0
LINE
  5
1EB
330
1F
100
AcDbEntity
  8
0
 62
     7
370
    35
100
AcDbLine
 10
215.092087
 20
159.003113
 30
0.0
 11
173.522873
 21
183.003113
 31
0.0
  0
ARC
  5
1EC
330
1F
100
AcDbEntity
  8
0
 62
     7
370
    35
100
AcDbCircle
 10
218.092087
 20
164.199265
 30
0.0
 40
6.0
100
AcDbArc
 50
239.999997
 51
330.000003
  0
LINE
  5
1ED
330
1F
100
AcDbEntity
  8
0
 62
     7
370
    35
100
AcDbLine
 10
225.288239
 20
164.663361
 30
0.0
 11
223.288239
 21
161.199265
 31
0.0
  0
LINE
  5
1EE
330
1F
100
AcDbEntity
  8
0
 62
     7
370
    35
100
AcDbLine
 10
225.288239
 20
164.663361
 30
0.0
 11
199.30748
 21
179.663361
 31
0.0
  0
LINE
  5
1EF
330
1F
100
AcDbEntity
  8
0
 62
     7
370
    35
100
AcDbLine
 10
199.30748
 20
179.663361
 30
0.0
 11
200.80748
 21
182.261444
 31
0.0
  0
LINE
  5
1F0
330
1F
100
AcDbEntity
  8
0
 62
     7
370
    35
100
AcDbLine
 10
200.80748
 20
182.261444
 30
0.0
 11
226.788239
 21
167.261444
 31
0.0
  0
LINE
  5
1F1
330
1F
100
AcDbEntity
  8
0
 62
     7
370
    35
100
AcDbLine
 10
264.288239
 20
232.213348
 30
0.0
 11
226.788239
 21
167.261444
 31
0.0
  0
LINE
  5
1F2
330
1F
100
AcDbEntity
  8
0
 62
     7
370
    35
100
AcDbLine
 10
238.30748
 20
247.213348
 30
0.0
 11
264.288239
 21
232.213348
 31
0.0
  0
LINE
  5
1F3
330
1F
100
AcDbEntity
  8
0
 62
     7
370
    35
100
AcDbLine
 10
239.80748
 20
249.811432
 30
0.0
 11
238.30748
 21
247.213348
 31
0.0
  0
LINE
  5
1F4
330
1F
100
AcDbEntity
  8
0
 62
     7
370
    35
100
AcDbLine
 10
265.788239
 20
234.811432
 30
0.0
 11
239.80748
 21
249.811432
 31
0.0
  0
LINE
  5
1F5
330
1F
100
AcDbEntity
  8
0
 62
     7
370
    35
100
AcDbLine
 10
267.788239
 20
238.275528
 30
0.0
 11
265.788239
 21
234.811432
 31
0.0
  0
ARC
  5
1F6
330
1F
100
AcDbEntity
  8
0
 62
     7
370
    35
100
AcDbCircle
 10
262.592102
 20
241.275528
 30
0.0
 40
6.0
100
AcDbArc
 50
330.000003
 51
60.000002
  0
LINE
  5
1F7
330
1F
100
AcDbEntity
  8
0
 62
     7
370
    35
100
AcDbLine
 10
224.022873
 20
270.47168
 30
0.0
 11
265.592102
 21
246.47168
 31
0.0
  0
ENDSEC
  0
SECTION
  2
OBJECTS
  0
DICTIONARY
  5
C
330
0
100
AcDbDictionary
281
     1
  3
ACAD_GROUP
350
D
  3
ACAD_LAYOUT
350
1A
  3
ACAD_MLINESTYLE
350
17
  3
ACAD_PLOTSETTINGS
350
19
  3
ACAD_PLOTSTYLENAME
350
E
  3
ACAD_SCALELIST
350
47
  0
DICTIONARY
  5
D
102
{ACAD_REACTORS
330
C
102
}
330
C
100
AcDbDictionary
281
     1
  0
DICTIONARY
  5
1A
102
{ACAD_REACTORS
330
C
102
}
330
C
100
AcDbDictionary
281
     1
  3
Layout1
350
1E
  3
Layout2
350
26
  3
Model
350
22
  0
DICTIONARY
  5
17
102
{ACAD_REACTORS
330
C
102
}
330
C
100
AcDbDictionary
281
     1
  3
Standard
350
18
  0
DICTIONARY
  5
19
102
{ACAD_REACTORS
330
C
102
}
330
C
100
AcDbDictionary
281
     1
  0
ACDBDICTIONARYWDFLT
  5
E
102
{ACAD_REACTORS
330
C
102
}
330
C
100
AcDbDictionary
281
     1
  3
Normal
350
F
100
AcDbDictionaryWithDefault
340
F
  0
DICTIONARY
  5
47
102
{ACAD_REACTORS
330
C
102
}
330
C
100
AcDbDictionary
281
     1
  3
A0
350
48
  3
A1
350
49
  3
A2
350
4A
  3
A3
350
4B
  3
A4
350
4C
  3
A5
350
4D
  3
A6
350
4E
  3
A7
350
4F
  3
A8
350
50
  3
A9
350
51
  3
B0
350
52
  3
B1
350
53
  3
B2
350
54
  3
B3
350
55
  3
B4
350
56
  3
B5
350
57
  3
B6
350
58
  3
B7
350
59
  3
B8
350
5A
  3
B9
350
5B
  3
C0
350
5C
  3
C1
350
5D
  3
C2
350
5E
  3
C3
350
5F
  3
C4
350
60
  3
C5
350
61
  3
C6
350
62
  3
C7
350
63
  3
C8
350
64
  3
C9
350
65
  3
D0
350
66
  3
D1
350
67
  3
D2
350
68
  0
LAYOUT
  5
1E
102
{ACAD_REACTORS
330
1A
102
}
330
1A
100
AcDbPlotSettings
  1

  2
none_device
  4

  6

 40
0.0
 41
0.0
 42
0.0
 43
0.0
 44
0.0
 45
0.0
 46
0.0
 47
0.0
 48
0.0
 49
0.0
140
0.0
141
0.0
142
1.0
143
1.0
 70
  4784
 72
     0
 73
     0
 74
     5
  7

 75
    16
147
1.0
148
0.0
149
0.0
100
AcDbLayout
  1
Layout1
 70
     1
 71
     1
 10
0.0
 20
0.0
 11
420.0
 21
297.0
 12
0.0
 22
0.0
 32
0.0
 14
0.0
 24
0.0
 34
0.0
 15
1083.909668
 25
311.555023
 35
2.0
146
0.0
 13
0.0
 23
0.0
 33
0.0
 16
1.0
 26
0.0
 36
0.0
 17
0.0
 27
1.0
 37
0.0
 76
     0
330
1B
  0
LAYOUT
  5
26
102
{ACAD_REACTORS
330
1A
102
}
330
1A
100
AcDbPlotSettings
  1

  2
none_device
  4

  6

 40
0.0
 41
0.0
 42
0.0
 43
0.0
 44
0.0
 45
0.0
 46
0.0
 47
0.0
 48
0.0
 49
0.0
140
0.0
141
0.0
142
1.0
143
1.0
 70
  4784
 72
     0
 73
     0
 74
     5
  7

 75
    16
147
1.0
148
0.0
149
0.0
100
AcDbLayout
  1
Layout2
 70
     1
 71
     2
 10
0.0
 20
0.0
 11
0.0
 21
0.0
 12
0.0
 22
0.0
 32
0.0
 14
0.0
 24
0.0
 34
0.0
 15
0.0
 25
0.0
 35
0.0
146
0.0
 13
0.0
 23
0.0
 33
0.0
 16
1.0
 26
0.0
 36
0.0
 17
0.0
 27
1.0
 37
0.0
 76
     0
330
23
  0
LAYOUT
  5
22
102
{ACAD_REACTORS
330
1A
102
}
330
1A
100
AcDbPlotSettings
  1

  2
none_device
  4
Letter_(8.50_x_11.00_Inches)
  6

 40
6.35
 41
6.35
 42
6.350005
 43
6.350005
 44
215.9
 45
279.4
 46
0.0
 47
0.0
 48
0.0
 49
0.0
140
0.0
141
0.0
142
1.0
143
1.0
 70
  5808
 72
     0
 73
     0
 74
     0
  7

 75
     0
147
1.0
148
0.0
149
0.0
100
AcDbLayout
  1
Model
 70
     1
 71
     0
 10
0.0
 20
0.0
 11
420.0
 21
297.0
 12
0.0
 22
0.0
 32
0.0
 14
0.0
 24
0.0
 34
0.0
 15
1083.909668
 25
311.555023
 35
2.0
146
0.0
 13
0.0
 23
0.0
 33
0.0
 16
1.0
 26
0.0
 36
0.0
 17
0.0
 27
1.0
 37
0.0
 76
     0
330
1F
331
29
  0
MLINESTYLE
  5
18
102
{ACAD_REACTORS
330
17
102
}
330
17
100
AcDbMlineStyle
  2
Standard
 70
     0
  3

 62
   256
 51
90.0
 52
90.0
 71
     2
 49
0.5
 62
   256
  6
BYLAYER
 49
-0.5
 62
   256
  6
BYLAYER
  0
ACDBPLACEHOLDER
  5
F
102
{ACAD_REACTORS
330
E
102
}
330
E
  0
SCALE
  5
48
102
{ACAD_REACTORS
330
47
102
}
330
47
100
AcDbScale
 70
     0
300
1:1
140
1.0
141
1.0
290
     1
  0
SCALE
  5
49
102
{ACAD_REACTORS
330
47
102
}
330
47
100
AcDbScale
 70
     0
300
1:2
140
1.0
141
2.0
290
     0
  0
SCALE
  5
4A
102
{ACAD_REACTORS
330
47
102
}
330
47
100
AcDbScale
 70
     0
300
1:4
140
1.0
141
4.0
290
     0
  0
SCALE
  5
4B
102
{ACAD_REACTORS
330
47
102
}
330
47
100
AcDbScale
 70
     0
300
1:5
140
1.0
141
5.0
290
     0
  0
SCALE
  5
4C
102
{ACAD_REACTORS
330
47
102
}
330
47
100
AcDbScale
 70
     0
300
1:8
140
1.0
141
8.0
290
     0
  0
SCALE
  5
4D
102
{ACAD_REACTORS
330
47
102
}
330
47
100
AcDbScale
 70
     0
300
1:10
140
1.0
141
10.0
290
     0
  0
SCALE
  5
4E
102
{ACAD_REACTORS
330
47
102
}
330
47
100
AcDbScale
 70
     0
300
1:16
140
1.0
141
16.0
290
     0
  0
SCALE
  5
4F
102
{ACAD_REACTORS
330
47
102
}
330
47
100
AcDbScale
 70
     0
300
1:20
140
1.0
141
20.0
290
     0
  0
SCALE
  5
50
102
{ACAD_REACTORS
330
47
102
}
330
47
100
AcDbScale
 70
     0
300
1:30
140
1.0
141
30.0
290
     0
  0
SCALE
  5
51
102
{ACAD_REACTORS
330
47
102
}
330
47
100
AcDbScale
 70
     0
300
1:40
140
1.0
141
40.0
290
     0
  0
SCALE
  5
52
102
{ACAD_REACTORS
330
47
102
}
330
47
100
AcDbScale
 70
     0
300
1:50
140
1.0
141
50.0
290
     0
  0
SCALE
  5
53
102
{ACAD_REACTORS
330
47
102
}
330
47
100
AcDbScale
 70
     0
300
1:100
140
1.0
141
100.0
290
     0
  0
SCALE
  5
54
102
{ACAD_REACTORS
330
47
102
}
330
47
100
AcDbScale
 70
     0
300
2:1
140
2.0
141
1.0
290
     0
  0
SCALE
  5
55
102
{ACAD_REACTORS
330
47
102
}
330
47
100
AcDbScale
 70
     0
300
4:1
140
4.0
141
1.0
290
     0
  0
SCALE
  5
56
102
{ACAD_REACTORS
330
47
102
}
330
47
100
AcDbScale
 70
     0
300
8:1
140
8.0
141
1.0
290
     0
  0
SCALE
  5
57
102
{ACAD_REACTORS
330
47
102
}
330
47
100
AcDbScale
 70
     0
300
10:1
140
10.0
141
1.0
290
     0
  0
SCALE
  5
58
102
{ACAD_REACTORS
330
47
102
}
330
47
100
AcDbScale
 70
     0
300
100:1
140
100.0
141
1.0
290
     0
  0
SCALE
  5
59
102
{ACAD_REACTORS
330
47
102
}
330
47
100
AcDbScale
 70
     0
300
1/128" = 1'-0"
140
0.007812
141
12.0
290
     0
  0
SCALE
  5
5A
102
{ACAD_REACTORS
330
47
102
}
330
47
100
AcDbScale
 70
     0
300
1/64" = 1'-0"
140
0.015625
141
12.0
290
     0
  0
SCALE
  5
5B
102
{ACAD_REACTORS
330
47
102
}
330
47
100
AcDbScale
 70
     0
300
1/32" = 1'-0"
140
0.03125
141
12.0
290
     0
  0
SCALE
  5
5C
102
{ACAD_REACTORS
330
47
102
}
330
47
100
AcDbScale
 70
     0
300
1/16" = 1'-0"
140
0.0625
141
12.0
290
     0
  0
SCALE
  5
5D
102
{ACAD_REACTORS
330
47
102
}
330
47
100
AcDbScale
 70
     0
300
3/32" = 1'-0"
140
0.09375
141
12.0
290
     0
  0
SCALE
  5
5E
102
{ACAD_REACTORS
330
47
102
}
330
47
100
AcDbScale
 70
     0
300
1/8" = 1'-0"
140
0.125
141
12.0
290
     0
  0
SCALE
  5
5F
102
{ACAD_REACTORS
330
47
102
}
330
47
100
AcDbScale
 70
     0
300
3/16" = 1'-0"
140
0.1875
141
12.0
290
     0
  0
SCALE
  5
60
102
{ACAD_REACTORS
330
47
102
}
330
47
100
AcDbScale
 70
     0
300
1/4" = 1'-0"
140
0.25
141
12.0
290
     0
  0
SCALE
  5
61
102
{ACAD_REACTORS
330
47
102
}
330
47
100
AcDbScale
 70
     0
300
3/8" = 1'-0"
140
0.375
141
12.0
290
     0
  0
SCALE
  5
62
102
{ACAD_REACTORS
330
47
102
}
330
47
100
AcDbScale
 70
     0
300
1/2" = 1'-0"
140
0.5
141
12.0
290
     0
  0
SCALE
  5
63
102
{ACAD_REACTORS
330
47
102
}
330
47
100
AcDbScale
 70
     0
300
3/4" = 1'-0"
140
0.75
141
12.0
290
     0
  0
SCALE
  5
64
102
{ACAD_REACTORS
330
47
102
}
330
47
100
AcDbScale
 70
     0
300
1" = 1'-0"
140
1.0
141
12.0
290
     0
  0
SCALE
  5
65
102
{ACAD_REACTORS
330
47
102
}
330
47
100
AcDbScale
 70
     0
300
1-1/2" = 1'-0"
140
1.5
141
12.0
290
     0
  0
SCALE
  5
66
102
{ACAD_REACTORS
330
47
102
}
330
47
100
AcDbScale
 70
     0
300
3" = 1'-0"
140
3.0
141
12.0
290
     0
  0
SCALE
  5
67
102
{ACAD_REACTORS
330
47
102
}
330
47
100
AcDbScale
 70
     0
300
6" = 1'-0"
140
6.0
141
12.0
290
     0
  0
SCALE
  5
68
102
{ACAD_REACTORS
330
47
102
}
330
47
100
AcDbScale
 70
     0
300
1'-0" = 1'-0"
140
12.0
141
12.0
290
     0
  0
ENDSEC
  0
EOF
